» » »

Sinister, Epoch Of Denial Tabs (ver.1)

Artists:  A B C D E F G H I J K L M N O P Q R S T U V W X Y Z # 

Epoch Of Denial Tabs (ver.1)

Sinister Tabs
 Rating:
4/5 (4 votes)
Epoch Of Denial lessons Tabs too difficult? Try these video lessons and learn fast
1
                
Rhythm Guitar Transcribed on Bass
Tuning (low - High): D G C F

A
|-----------------------------------------------------------------------|
|-2--------------------------4---3---4---3---3-------2------------------|
|-2--------------4---3---2---2---1---2---1---1---4---2------------------|
|-0--------------2---1---0-----------------------2---0------------------|

B (Play each note twice except for last chord)
|-------------------------------------|
|---------------------------------6---|
|-7-7-6-6-----5-5---------7-7-5-5-7---|
|---------8-8-----6-6-5-5-------------|
  pm..............................

Repeat A

C
|-------------------------------------|
|-----7-------------------------------|
|-/6----------8---7-------6-------7---|
|---------0-----------9-------7---8---|

D  (Lyric: "Epoch of Denial!")
|---------------------------------|
|---------------------------------|
|-2---2---2---2---3-------2---2---|
|-0---0---0---0---1-------0---0---|
  pm..............        pm......

Repeat B, D & C

E                Play 4 Times
|--------------------------------------------------------------|
|---------------------4---3---4---3---3------------------------|
|-2---2---4---3---2---2---1---2---1---1-------1-h3-p1----------|
|-0---0---2---1---0------------------------------------3---5~--|
  pm......

F1
|-----------------------------------------------------------------------------|
|-----------------------4--3--------------------------------------------------|
|-----------5--4--3--4--2--1--------------------5--4--3-----------------------|
|-0--0-0-0--3--2--1--2--------0-0-0-0-0--0-0-0--3--2--1--0-0-0--0-0-0--0-0-0--|
  pm.................
pm..............................................
F2
|---------------------------------------------------------------------------|
|-----------------------4--3------------------------------------------------|
|-----------5--4--3--4--2--1--------------------5--4--3--6---3------4---3---|
|-0--0-0-0--3--2--1--2--------0-0-0-0-0--0-0-0--3--2--1--4---1---0--2---1---|
  pm.................         pm.........................        pm.

Repeat F1 & F2

THAT'S HOW MUCH I'VE DONE...FOR NOW!


Erik
----------------------
            
Submit corrections

comments powered by Disqus
↑ Back to top | Sinister Tabs for Epoch Of Denial. Lyrics for acoustic guitar and electric guitar. 1 Tablatures and chords are parodies/interpretations of the original songs. You may use it for private study, scholarship, research or language learning purposes only