>
 >
Enslave The Weak

Enslave The Weak Guitar Tabs

Sinister - Enslave The Weak chords, tabs, tablatures, lyrics

Guitar lessons | Add/correct | Request | Top 50 tabs Artists:  A B C D E F G H I J K L M N O P Q R S T U V W X Y Z 0-9

Enslave The Weak Guitar Tabs – Sinister

CD, Sheet music, Poster

Do you like Enslave The Weak? Share with your friends now
Tabs

Rhythm Guitar Transcribed on Bass
Tuning (low - High): D G C F

A1
|-------------------------------------------------------|
|-------------------------------------------------------|
|-------------------------4-4-4-4-4-4-------------------|
|-6-6-6-6-6-6-3-3-3-3-3-3-------------0--6---0--6---6---|
  pm.....................................    pm.

A2
|-----------------------------------------------------------------|
|-----------------------------------------------------------------|
|-------------------------4-4-4-4-4-4-8--8---8--8---8--8---8--8---|
|-6-6-6-6-6-6-3-3-3-3-3-3-------------6--6---6--6---6--6---6--6---|
  pm..............................................................

Repeat A1, A2 & A1

A3
|----------------------------------------------------------|
|-------------------------------------6--6---6--6---6--6---|
|-------------------------4-4-4-4-4-4-4--4---4--4---4--4---|
|-6-6-6-6-6-6-3-3-3-3-3-3----------------------------------|
  pm.......................................................

Fill
|-------------------|
|-------------------|
|-------------------|
|-0--6---0--6---6---|
  pm.    pm.

B1 - Guitar 1 (Left Channel)
|----------------------------------------------------|
|-7-7-7-7-----7-7-7-7-----7-7-7-7-----7-7----4---6---|
|---------7-----------6-----------5-------4----------|
|----------------------------------------------------|
  pm.................................................
B1 - Guitar 2 (Right Channel)
|----------------------------------------------------|
|----------------------------------------------------|
|-7--------------------------------------------------|
|-5--------------------------------------------------|

Repeat B1

B2 - Guitar 1 (Left Channel)
|--------------------------------------------------------|
|-7-7-7-7-7-7-----7-7-7-7-----7-7-7-7-----7-7----4---6---|
|-------------7-----------6-----------5-------4----------|
|--------------------------------------------------------|
  pm.....................................................
B2 - Guitar 2 (Right Channel)
|--------------------------------------------------------|
|-7-7-7-7-7-7-------------7-7-7-7-7-7------------4---6---|
|-------------7-----------------------6-------4----------|
|--------------------------------------------------------|
  pm.....................................................

Repeat B2
Repeat A1

A4
|---------------------------------------------------------------------|
|---------------------------------------------------------------------|
|-------------------------4-4-4-4-4-4---------------------------------|
|-6-6-6-6-6-6-3-3-3-3-3-3-------------6-6-0-0-2-2-3-3-5-5-3-3-2-2-0-0-|
 pm...................................................................

Repeat A1, A2, A1, A4 & A1

C (Fill)
|--------------------------|
|--------------------------|
|-------------------8--8---|
|-0--6---0--6---6---6--6---|
  pm.    pm.        pm.....

Fill (Guitar 1 - Left Channel Only)
|----------------------------|
|----------------------------|
|----------------------------|
|-6--6--0--2--3--5--3--2--0--|
  pm.........................

Repeat B1 x 2

D                                  Play 4 Times
|---------------------------------------------|
|-7-----------4-----------7-----------5---8---|
|-----0-0-0-0-----4-4-4-4-----7---6-----------|
|---------------------------------------------|
      pm......    pm......    pm......

Repeat A1, A4, A1, A2, A1, A4 & A1
Repeat C (Fill)
Repeat D x 2

E          Play 2 Times
|---------------------------------------------|
|-------------5-----------7-----------5---8---|
|-7-----------3---3-3-3-3-----7---6-----------|
|-5---5-5-5-5---------------------------------|
      pm......    pm......    pm......

F1
|-------------------------------------------------------------|
|-------------5-----------4-----------------------------------|
|-7-----------3---3-3-3-3-5---0-0-0-0-3-----------7-----------|
|-5---5-5-5-5-------------------------4---4-4-4-4-5---5-5-5-5-|
      pm......    pm......    pm......    pm......    pm......

F2
|-------------------------------------------------------------|
|-7-----------4-----------5-----------3-----------5-----------|
|-----0-0-0-0-----4-4-4-4-----------------------------0-0-0-0-|
|-----------------------------3-3-3-3-----0-0-0-0-------------|
      pm......    pm......    pm......    pm......    pm......

Repeat (F1 + F2)

B3 (Both Guitars)         Play 2 Times
|--------------------------------------------------------|
|-7-7-7-7-7-7-----7-7-7-7-----7-7-7-7-----7-7----4---6---|
|-------------7-----------6-----------5-------4----------|
|--------------------------------------------------------|
  pm.....................................................

B4 - Guitar 1 (Left Channel)
|--------------------------------------------------------|
|-7-7-7-7-7-7-----7-7-7-7-----7-7-7-7-----7-7----4---6---|
|-------------7-----------6-----------5-------4----------|
|--------------------------------------------------------|
  pm.....................................................
B4 - Guitar 2 (Right Channel)
|--------------------------------------------------------|
|--------------------------------------------------------|
|-7---7-----7---7-----7---7-----7---7-----7---7------7---|
|-5---5-----5---5-----5---5-----5---5-----5---5------5---|
  pm.....................................................

Fill - Guitar 1 (Left Channel)
|-----------------------------8---8--------------------------|
|-7-7-7-7-7-7-----7-7-7-7----------------4---6-------5---7---|
|-------------7-----------6-----------4----------5-5---------|
|------------------------------------------------------------|
  pm.........................................................
     - Guitar 2 (Right Channel)
|------------------------------------------------------------|
|------------------------------------------------------------|
|-7---7-----7---7-----7--------------------------------------|
|-5---5-----5---5-----5--------------------------------------|
  pm......................

Repeat (A1 + A2) x 3

G                                             Play 6 Times
|--------------------------------------------------------|
|-8--8-\-------------------------------------------------|
|-5--5-\-------------------------------------------------|
|-6--6-\---3h5-5-5-5-5-5-3h5-5-5-5-5-5-3h5-5-5-5-5-5-1-1-|
           pm............................................

Fill
|---------------------|
|---------------------|
|-3---3-----3---3-----|
|-1---1-----1---1-----|
  pm..................

H1
|---------------------------------------------------------|
|---------------------------------------------------------|
|---------------------------------------------------------|
|-3h5-5-5-5-5-5-3h5-5-5-5-5-5-3h5-5-5-5-5-5-1h5-5-5-5-1-1-|
  pm................................................

H2
|-------------------------------------------------|
|-------------------------------------------------|
|-------------------------3-3-3-3-3-3-1-1-1-1-1-1-|
|-0-0-0-0-0-0-0-0-0-0-0-0-------------------------|
  pm..............................................

Repeat (H1 + H2) x 3
Repeat G x 2
Repeat (H1 + H2) x 2

I1
|---------------------------------------------------------------|
|-----------------------------------------------5--3----8--8-\--|
|-----------------------------------------------3--1----5--5-\--|
|-3h5-5-5-5-5-5-3h5-5-5-5-5-5-3h5-5-5-5-5-5-5-5---------6--6-\--|
  pm............................................

I2
|--------------------------------------------------------|
|------------------------------------------------8--8-\--|
|-------------------------------------------3----5--5-\--|
|-3h5-5-5-5-5-5-3h5-5-5-5-5-5-3h5-5-5-5-5-5-1----6--6-\--|
  pm........................................

Repeat (I1 + I2)
Repeat (H1 + H2) x 4
Repeat (I1 + I2) x 2
Repeat G x 3

Fill
|-------------------|
|-8-----------------|
|-5---8--8---8--8---|
|-6---6--6---6--6---|
      pm............

Repeat A1, A4, A1, A2, A1, A4, A1

Fill
|-------------------------------------|
|-------------------------------------|
|-------------------------4-4-4-4-4-4-|
|-6-6-6-6-6-6-3-3-3-3-3-3-------------|
  pm..................................

Repeat D x 2
Repeat E x 2
Repeat (F1 + F2) x 2
Repeat D

D - Guitar 1 (Left Channel)            Play 3 Times
|---------------------------------------------|
|-7-----------4-----------7-----------5---8---|
|-----0-0-0-0-----4-4-4-4-----7---6-----------|
|---------------------------------------------|
      pm......    pm......    pm......
  - Guitar 2 (Right Channel)
|---------------------------------------------|
|-7-7-7-7-7-7-----7-7-7-7-----7-7-7-7-----7-7-|
|-------------7-----------6-----------5-------|
|---------------------------------------------|
  pm..........................................

Outro  - Guitar 1 (Left Channel)
|-------------------------------------------------|
|-7-----------4-----------7---4---6-------5---7---|
|-----0-0-0-0-----4-4-4-4-------------5-5---------|
|-------------------------------------------------|
      pm......    pm......            pm..
       - Guitar 2 (Right Channel)
|-------------------------------------------------|
|-7-7-7-7-7-7-----7-7-7-7-----4-----------5---7---|
|-------------7-----------6-----------5-----------|
|-------------------------------------------------|
  pm..........................        pm..


The End.

Erik
----------------------





Comments


Popular Sinister tabs & chords
Bastard Saints Tabs
Diabolical Summonings Tabs
Epoch Of Denial Tabs
Sadistic Intent Tabs
Sense Of Demise Tabs
The Bloodfeast Tabs


Song lyrics



↑ Back to top | Tablatures and chords are parodies/interpretations of the original songs. You may use it for private study, scholarship, research or language learning purposes only
© 2014 AZChords.com Contact us | Privacy policy | DMCA | Add/correct tabs | Request tabs | Top 50 tabs