>
 >
Diabolical Summonings

Diabolical Summonings Guitar Tabs

Sinister - Diabolical Summonings chords, tabs, tablatures, lyrics

Guitar lessons | Add/correct | Request | Top 50 tabs Artists:  A B C D E F G H I J K L M N O P Q R S T U V W X Y Z 0-9

Diabolical Summonings Guitar Tabs – Sinister

CD, Sheet music, Poster

Do you like Diabolical Summonings? Share with your friends now
Tabs
DIABOLICAL SUMMONING - Sinister - Diabolical Summoning

Rhythm Guitar Transcribed on Bass
Tuning (low - High): D G C F

A  Guitars             Play 4 Times
|---------------------------------|
|---------------------------------|
|-----3-3-2-2-1-1-2-2-3-3-2-2-5-5-|
|-3-------------------------------|
  pm..............................
A  Bass
|---------------------------------|
|---------------------------------|
|---------------------------------|
|-3-------3-------3-------3-------|

B              Play 4 Times
|-------------------------------------------------|
|-------------------------------------------------|
|-7-7-5-5-3-3-5-5-3-3-2-2-8-8-6-6-5-5-8-8-6-6-5-5-|
|-------------------------------------------------|
  pm..............................................

C
|---------------------------------|
|-2h3p2h3p2h3p2h3p2h3p2h3p2h3p2h3-|
|---------------------------------|
|---------------------------------|

D - Fast!                 Play 7 Times
|-------------------------------------|
|---------------------2--5------3--6--|
|-8-8-5-5-2-2-3---0-0-------0-0-------|
|-------------------------------------|
  pm..................      pm..

Repeat B x 4
Repeat D x 4
Repeat B x 2

E1
|------------------------------------------------------------|
|----------------------------------9-------12-------10-------|
|-2-----------5-------3-----------10-------13-------11-------|
|-0-0-0-0-0-0-6---0-0-4---0-0-0-0------0-0------0-0------0-0-|
    pm........    pm..    pm......     pm..     pm..     pm..

E2                             Play Each Note Twice Here
|-----------------------------|-------------------------|
|-----------------------------|-------------------------|
|-2-----------5-------3-------|-2-3-5-2-3-5-4-5-7-4-5-7-|
|-0-0-0-0-0-0-6---0-0-4---0-0-|-------------------------|
    pm........    pm..    pm............................

Repeat (E1 + E2)
Repeat A
Repeat D x 7
Repeat B x 2

F                                                      Play 2 Times
|-----------------------------------------------------------------|
|-2h3p2h3p2h3p2h3p2h3p2h3p2h3p2h3-1h2p1h2p1h2p1h2p1h2p1h2p1h2p1h2-|
|-----------------------------------------------------------------|
|-----------------------------------------------------------------|

G          Play 4 Times
|-----------------------------------------------------------------|
|---------------------------------------------------------4---3---|
|-4-4-3---2---3---6-6-5---3---2---4-4-3---2---3---3---2---2---1---|
|-2-2-1---0---1---4-4-3---1---0---2-2-1---0---1---1---0-----------|
  pm......................................................

Pause
Repeat G x 4

H1
|---------------------------------------------------------|
|---------------------------------------------------------|
|---------------------------------2-----------4-----------|
|-0-0-0-0-0-0-0-0-0-0-0-0-0-0-0-0---3-2-4-2-1---5-4-6-4-3-|
  pm......................................................

H2
|---------------------------------------------------------|
|---------------------------------------------------------|
|---------------------------------2-----------4-----------|
|-5-5-5-5-5-5-5-5-5-5-5-5-5-5-5-5---3-2-4-2-1---5-4-6-4-3-|
  pm......................................................

Repeat (H1 + H2)

I (Fill)
|-------------|
|-------------|
|-5--4--7--3--|
|-3--2--5--1--|
  pm..........

Repeat B x 4

J   (1, 2, 3 & 4)            (5)      Play 4 Times
|-----------------|---------------------|
|-----------------|---------------------|
|-----------------|-6---5---4---5---7---|
|-0-0-0-0-0-0-0-0-|-4---3---2---3---5---|
  pm....................................

Repeat C
Repeat D x 8
Repeat B x 4
Repeat D x 4
Repeat B x 2
Repeat (E1 + E2) x 2
Repeat I (Fill)
Repeat G (only once)


The End.

Erik
----------------------





Comments


Popular Sinister tabs & chords
Bastard Saints Tabs
Enslave The Weak Tabs
Epoch Of Denial Tabs
Sadistic Intent Tabs
Sense Of Demise Tabs
The Bloodfeast Tabs


Song lyrics



↑ Back to top | Tablatures and chords are parodies/interpretations of the original songs. You may use it for private study, scholarship, research or language learning purposes only
© 2014 AZChords.com Contact us | Privacy policy | DMCA | Add/correct tabs | Request tabs | Top 50 tabs