>
 >
Nothing Compares To You

Nothing Compares To You Guitar Tabs

Sinead Oconnor - Nothing Compares To You chords, tabs, tablatures, lyrics

Guitar lessons | Add/correct | Request | Top 50 tabs Artists:  A B C D E F G H I J K L M N O P Q R S T U V W X Y Z 0-9

Nothing Compares To You Guitar Tabs – Sinead Oconnor

CD, Sheet music, Poster

Do you like Nothing Compares To You? Share with your friends now
ChordsChords v2Chords v3TabsUkulele
-----------------------------------------------------------------------------
                   NOTHING COMPARES 2 U - Sinead O'Connor
-----------------------------------------------------------------------------
Tuning: Standard Tuning



-----------
INFORMATION
-----------
DON'T JUST PLAY THE CHORDS LISTED ABOVE THE BARS. 
I've just included those to give a better understanding of when chord changes
occur and what the chords are at their core.

-LOOK AT THE TAB CAREFULLY TO UNDERSTAND WHAT FRETS NEED TO BE PLAYED.-


Note: I have not included a strumming pattern but have specified the bar
lengths for each chord, so that you are able to make your own strumming
pattern.




-------
Verse 1
-------

              It's been seven hours and fifteen days
  (F)                                   (C)
e|-1----------------|-1----------------|-3----------------|-3---------------|
B|-1----------------|-1----------------|-1----------------|-1---------------|
G|-2----------------|-2----------------|-0----------------|-0---------------|
D|-3----------------|-3----------------|-2----------------|-2---------------|
A|------------------|------------------|-3----------------|-3---------------|
E|------------------|------------------|------------------|-----------------|

      Since you took your love away
  (Dm)                                  (F)                (C - Var. 2)
e|-1----------------|-1----------------|-1----------------|-1---------------|
B|-3----------------|-3----------------|-1----------------|-1---------------|
G|-2----------------|-2----------------|-2----------------|-0---------------|
D|-0----------------|-0----------------|-3----------------|-2---------------|
A|------------------|------------------|------------------|-3---------------|
E|------------------|------------------|------------------|-----------------|

               I go out every night and sleep all day
  (F)                                   (C)
e|-1----------------|-1----------------|-3----------------|-3---------------|
B|-1----------------|-1----------------|-1----------------|-1---------------|
G|-2----------------|-2----------------|-0----------------|-0---------------|
D|-3----------------|-3----------------|-2----------------|-2---------------|
A|------------------|------------------|-3----------------|-3---------------|
E|------------------|------------------|------------------|-----------------|

      Since you took your love away
  (Dm)                                  (F)                (C - Var. 2)
e|-1----------------|-1----------------|-1----------------|-1---------------|
B|-3----------------|-3----------------|-1----------------|-1---------------|
G|-2----------------|-2----------------|-2----------------|-0---------------|
D|-0----------------|-0----------------|-3----------------|-2---------------|
A|------------------|------------------|------------------|-3---------------|
E|------------------|------------------|------------------|-----------------|

      Since you been gone I can do what-ever I want
  (F)                                   (C)
e|-1----------------|-1----------------|-3----------------|-3---------------|
B|-1----------------|-1----------------|-1----------------|-1---------------|
G|-2----------------|-2----------------|-0----------------|-0---------------|
D|-3----------------|-3----------------|-2----------------|-2---------------|
A|------------------|------------------|-3----------------|-3---------------|
E|------------------|------------------|------------------|-----------------|

      I can see whomever I choose
  (Dm)                                  (F)                (C - Var. 2)
e|-1----------------|-1----------------|-1----------------|-1---------------|
B|-3----------------|-3----------------|-1----------------|-1---------------|
G|-2----------------|-2----------------|-2----------------|-0---------------|
D|-0----------------|-0----------------|-3----------------|-2---------------|
A|------------------|------------------|------------------|-3---------------|
E|------------------|------------------|------------------|-----------------|

         I can eat my dinner in a fancy restaurant                        But
  (F)                                   (C)
e|-1----------------|-1----------------|-3----------------|-3---------------|
B|-1----------------|-1----------------|-1----------------|-1---------------|
G|-2----------------|-2----------------|-0----------------|-0---------------|
D|-3----------------|-3----------------|-2----------------|-2---------------|
A|------------------|------------------|-3----------------|-3---------------|
E|------------------|------------------|------------------|-----------------|

  nothing,      I said nothing can take away these blues               'Cause
  (Dm)                                  (A)
e|-1----------------|-1----------------|-3----------------|-3---------------|
B|-3----------------|-3----------------|-2----------------|-2---------------|
G|-2----------------|-2----------------|-2----------------|-2---------------|
D|-0----------------|-0----------------|-2----------------|-2---------------|
A|------------------|------------------|------------------|-----------------|
E|------------------|------------------|------------------|-----------------|



--------
Chorus 1
--------

  No-thing        Com-pares                     Nothing com-pares to you
  (Bb)               (F)                (Bb)               (F)
e|-6----------------|-1----------------|-6----------------|-1---------------|
B|-6----------------|-1----------------|-6----------------|-1---------------|
G|-7----------------|-2----------------|-7----------------|-2---------------|
D|-8----------------|-3----------------|-8----------------|-3---------------|
A|-8----------------|-3----------------|-8----------------|-3---------------|
E|-6----------------|-1----------------|-6----------------|-1---------------|


  (C)
e|-3----------------|-3----------------|-3----------------|-3---------------|
B|-1----------------|-1----------------|-1----------------|-1---------------|
G|-0----------------|-0----------------|-0----------------|-0---------------|
D|-2----------------|-2----------------|-2----------------|-2---------------|
A|-3----------------|-3----------------|-3----------------|-3---------------|
E|------------------|------------------|------------------|-----------------|



-------
Verse 2
-------

               It's been so lonely with-out you here
  (F)                                   (C)
e|-1----------------|-1----------------|-3----------------|-3---------------|
B|-1----------------|-1----------------|-1----------------|-1---------------|
G|-2----------------|-2----------------|-0----------------|-0---------------|
D|-3----------------|-3----------------|-2----------------|-2---------------|
A|------------------|------------------|-3----------------|-3---------------|
E|------------------|------------------|------------------|-----------------|

      Like a bird without a song
  (Dm)                                  (F)                (C - Var. 2)
e|-1----------------|-1----------------|-1----------------|-1---------------|
B|-3----------------|-3----------------|-1----------------|-1---------------|
G|-2----------------|-2----------------|-2----------------|-0---------------|
D|-0----------------|-0----------------|-3----------------|-2---------------|
A|------------------|------------------|------------------|-3---------------|
E|------------------|------------------|------------------|-----------------|

          Nothing can stop these lonely tears from falling            Tell me
  (F)                                   (C)
e|-1----------------|-1----------------|-3----------------|-3---------------|
B|-1----------------|-1----------------|-1----------------|-1---------------|
G|-2----------------|-2----------------|-0----------------|-0---------------|
D|-3----------------|-3----------------|-2----------------|-2---------------|
A|------------------|------------------|-3----------------|-3---------------|
E|------------------|------------------|------------------|-----------------|

  Baby,                  where did I go wrong?    
  (Dm)                                  (Bm - Var. 2)
e|-1----------------|-1----------------|-1----------------|-1---------------|
B|-3----------------|-3----------------|-3----------------|-3---------------|
G|-2----------------|-2----------------|-3----------------|-3---------------|
D|-0----------------|-0----------------|-3----------------|-3---------------|
A|------------------|------------------|-1----------------|-1---------------|
E|------------------|------------------|------------------|-----------------|

       I could put my arms around every boy I see
  (F)                                   (C)
e|-1----------------|-1----------------|-3----------------|-3---------------|
B|-1----------------|-1----------------|-1----------------|-1---------------|
G|-2----------------|-2----------------|-0----------------|-0---------------|
D|-3----------------|-3----------------|-2----------------|-2---------------|
A|------------------|------------------|-3----------------|-3---------------|
E|------------------|------------------|------------------|-----------------|

      But they'd only remind me of you
  (Dm)                                  (F)                (C - Var. 2)
e|-1----------------|-1----------------|-1----------------|-1---------------|
B|-3----------------|-3----------------|-1----------------|-1---------------|
G|-2----------------|-2----------------|-2----------------|-0---------------|
D|-0----------------|-0----------------|-3----------------|-2---------------|
A|------------------|------------------|------------------|-3---------------|
E|------------------|------------------|------------------|-----------------|

   I went to the doctor n'guess what he told me                       He said
  (F)                                   (C)
e|-1----------------|-1----------------|-3----------------|-3---------------|
B|-1----------------|-1----------------|-1----------------|-1---------------|
G|-2----------------|-2----------------|-0----------------|-0---------------|
D|-3----------------|-3----------------|-2----------------|-2---------------|
A|------------------|------------------|-3----------------|-3---------------|
E|------------------|------------------|------------------|-----------------|

 girl you better try have fun no matter what you do, But he's a fool   'Cause
  (Dm)                                  (A)
e|-1----------------|-1----------------|-3----------------|-3---------------|
B|-3----------------|-3----------------|-2----------------|-2---------------|
G|-2----------------|-2----------------|-2----------------|-2---------------|
D|-0----------------|-0----------------|-2----------------|-2---------------|
A|------------------|------------------|------------------|-----------------|
E|------------------|------------------|------------------|-----------------|



--------
Chorus 2
--------

  No-thing        Com-pares                     Nothing com-pares to you
  (Bb)               (F)                (Dm - Var. 2)      (C)
e|-6----------------|-1----------------|-5----------------|-3---------------|
B|-6----------------|-1----------------|-6----------------|-1---------------|
G|-7----------------|-2----------------|-7----------------|-0---------------|
D|-8----------------|-3----------------|-7----------------|-2---------------|
A|-8----------------|-3----------------|-5----------------|-3---------------|
E|-6----------------|-1----------------|------------------|-----------------|


  (C)
e|-3----------------|-3----------------|-3----------------|-3---------------|
B|-1----------------|-1----------------|-1----------------|-1---------------|
G|-0----------------|-0----------------|-0----------------|-0---------------|
D|-2----------------|-2----------------|-2----------------|-2---------------|
A|-3----------------|-3----------------|-3----------------|-3---------------|
E|------------------|------------------|------------------|-----------------|



------------
Instrumental (Can be ignored)
------------


  (F)                                   (C)
e|-1----------------|-1----------------|-3----------------|-3---------------|
B|-1----------------|-1----------------|-1----------------|-1---------------|
G|-2----------------|-2----------------|-0----------------|-0---------------|
D|-3----------------|-3----------------|-2----------------|-2---------------|
A|------------------|------------------|-3----------------|-3---------------|
E|------------------|------------------|------------------|-----------------|


  (Dm)                                  (F)                (C - Var. 2)
e|-1----------------|-1----------------|-1----------------|-1---------------|
B|-3----------------|-3----------------|-1----------------|-1---------------|
G|-2----------------|-2----------------|-2----------------|-0---------------|
D|-0----------------|-0----------------|-3----------------|-2---------------|
A|------------------|------------------|------------------|-3---------------|
E|------------------|------------------|------------------|-----------------|



  (F)                                   (C)
e|-1----------------|-1----------------|-3----------------|-3---------------|
B|-1----------------|-1----------------|-1----------------|-1---------------|
G|-2----------------|-2----------------|-0----------------|-0---------------|
D|-3----------------|-3----------------|-2----------------|-2---------------|
A|------------------|------------------|-3----------------|-3---------------|
E|------------------|------------------|------------------|-----------------|


  (Dm)                                  (F)                (C - Var. 2)
e|-1----------------|-1----------------|-1----------------|-1---------------|
B|-3----------------|-3----------------|-1----------------|-1---------------|
G|-2----------------|-2----------------|-2----------------|-0---------------|
D|-0----------------|-0----------------|-3----------------|-2---------------|
A|------------------|------------------|------------------|-3---------------|
E|------------------|------------------|------------------|-----------------|



-------
Verse 3
-------

  All the flowers that you planted mama,    In the Backyard
  (F)                                   (C)
e|-1----------------|-1----------------|-3----------------|-3---------------|
B|-1----------------|-1----------------|-1----------------|-1---------------|
G|-2----------------|-2----------------|-0----------------|-0---------------|
D|-3----------------|-3----------------|-2----------------|-2---------------|
A|------------------|------------------|-3----------------|-3---------------|
E|------------------|------------------|------------------|-----------------|

      All died when you went away
  (Dm)                                  (F)                (C - Var. 2)
e|-1----------------|-1----------------|-1----------------|-1---------------|
B|-3----------------|-3----------------|-1----------------|-1---------------|
G|-2----------------|-2----------------|-2----------------|-0---------------|
D|-0----------------|-0----------------|-3----------------|-2---------------|
A|------------------|------------------|------------------|-3---------------|
E|------------------|------------------|------------------|-----------------|


   I know that living with you baby was sometimes hard
  (F)                                   (C)
e|-1----------------|-1----------------|-3----------------|-3---------------|
B|-1----------------|-1----------------|-1----------------|-1---------------|
G|-2----------------|-2----------------|-0----------------|-0---------------|
D|-3----------------|-3----------------|-2----------------|-2---------------|
A|------------------|------------------|-3----------------|-3---------------|
E|------------------|------------------|------------------|-----------------|

     But I'm willing to give it another try
  (Dm)                                  (A)
e|-1----------------|-1----------------|-3----------------|-3---------------|
B|-3----------------|-3----------------|-2----------------|-2---------------|
G|-2----------------|-2----------------|-2----------------|-2---------------|
D|-0----------------|-0----------------|-2----------------|-2---------------|
A|------------------|------------------|------------------|-----------------|
E|------------------|------------------|------------------|-----------------|





-------
Chorus/Outro (Note: This changes to a 3-bar structure)
-------

  No-thing        Com-pares                    Nothing com-
  (Bb)               (F)                (Dm - Var. 2)
e|-6----------------|-1----------------|-5----------------|
B|-6----------------|-1----------------|-6----------------|
G|-7----------------|-2----------------|-7----------------|
D|-8----------------|-3----------------|-7----------------|
A|-8----------------|-3----------------|-5----------------|
E|-6----------------|-1----------------|------------------|

 -pares to you
  (C)
e|-3----------------|-3----------------|-3----------------|
B|-1----------------|-1----------------|-1----------------|
G|-0----------------|-0----------------|-0----------------|
D|-2----------------|-2----------------|-2----------------|
A|-3----------------|-3----------------|-3----------------|
E|------------------|------------------|------------------|


  No-thing        Com-pares                    Nothing com-
  (Bb)               (F)                (Dm - Var. 2)
e|-6----------------|-1----------------|-5----------------|
B|-6----------------|-1----------------|-6----------------|
G|-7----------------|-2----------------|-7----------------|
D|-8----------------|-3----------------|-7----------------|
A|-8----------------|-3----------------|-5----------------|
E|-6----------------|-1----------------|------------------|

 -pares to you
  (C)
e|-3----------------|-3----------------|-3----------------|
B|-1----------------|-1----------------|-1----------------|
G|-0----------------|-0----------------|-0----------------|
D|-2----------------|-2----------------|-2----------------|
A|-3----------------|-3----------------|-3----------------|
E|------------------|------------------|------------------|


  No-thing        Com-pares                    Nothing com-
  (Bb)               (F)                (Dm - Var. 2)
e|-6----------------|-1----------------|-5----------------|
B|-6----------------|-1----------------|-6----------------|
G|-7----------------|-2----------------|-7----------------|
D|-8----------------|-3----------------|-7----------------|
A|-8----------------|-3----------------|-5----------------|
E|-6----------------|-1----------------|------------------|

 -pares to you
  (C)
e|-3----------------|-3----------------|-3----------------|
B|-1----------------|-1----------------|-1----------------|
G|-0----------------|-0----------------|-0----------------|
D|-2----------------|-2----------------|-2----------------|
A|-3----------------|-3----------------|-3----------------|
E|------------------|------------------|------------------|



  (Bb)               (F)                (Dm - Var. 2)
e|-6----------------|-1----------------|-5----------------|
B|-6----------------|-1----------------|-6----------------|
G|-7----------------|-2----------------|-7----------------|
D|-8----------------|-3----------------|-7----------------|
A|-8----------------|-3----------------|-5----------------|
E|-6----------------|-1----------------|------------------|


  (C)
e|-3----------------|-3----------------|-3----------------|
B|-1----------------|-1----------------|-1----------------|
G|-0----------------|-0----------------|-0----------------|
D|-2----------------|-2----------------|-2----------------|
A|-3----------------|-3----------------|-3----------------|
E|------------------|------------------|------------------|





Comments


Popular Sinead Oconnor tabs & chords
Black Boys On Mopeds Chords
Black Boys On Mopeds 1 Chords
Feel So Different Chords
Nothing Compares To You 2 Chords
One More Day Chords
Black Boys On Mopeds Ukulele
Drink Before The War Ukulele
Jealous Ukulele
Nothing Compares To You Ukulele
Streets Of London Ukulele


Song lyrics



↑ Back to top | Tablatures and chords are parodies/interpretations of the original songs. You may use it for private study, scholarship, research or language learning purposes only
© 2014 AZChords.com Contact us | Privacy policy | DMCA | Add/correct tabs | Request tabs | Top 50 tabs