» » »

Weve Got A Groovy Thing Goin Bass tabs (ver.1)

Artists:  A B C D E F G H I J K L M N O P Q R S T U V W X Y Z # 

Weve Got A Groovy Thing Goin Bass tabs (ver.1)

Simon And Garfunkel
Rating:
0/5 (0 votes)

Tabs too difficult? Try these video lessons and learn fast.
                We've Got A Groovy Thing Goin'
Simon and Garfunkel
Written by Paul Simon; released as the B-side to "The Sound Of Silence", and 
on the album "Sounds Of Silence".

Intro:
G|------- ------- ------- -------|------- ------- ------- -------|
D|-------------------------------|-------------------------------|
A|-------------------------------|-------------------------------|
E|-------------------------------|-------------------------------|
 (drums)


G|------- ------- ------- -------|------- ------- ------- -------|
D|-------------------------------|-------------------------------|
A|-------------------------------|-------------------------------|
E|-------------------------------|-------------------------------|
 (guitar and organ enter)


G|------- ------- ------- -------|------- ------- ------- -------|
D|-------------------------------|-------------------------------|
A|-------------------------------|-------------------------------|
E|-------------------------------|-------------------------------|



G|------- ------- ------- -------|------- ------- ------- -------|
D|-------------------------------|-------------------------------|
A|3-----------3---3--------------|3---------------3--------------|
E|-------------------------------|----------------------------3--|



G|------- ------- ------- -------|------- ------- ------- -------|
D|-------------------------------|-------------------------------|
A|3---------------3--------------|3------------------------------|
E|-------------------------------|-------------------------------|
                                          Bad     news,   bad

Verse:
G|------- ------- ------- -------|------- ------- ------- -------|
D|-------------------------------|-------------------------------|
A|----------------5-------8------|-------------------------------|
E|6-----------6------------------|6------------------------------|
  news,                               I heard you're packing to leave,


G|------- ------- ------- -------|------- ------- ------- -------|
D|-------------------------------|-------------------------------|
A|------------------------10-----|-------------------------------|
E|8-----------8---11-------------|8------------------------------|
                                      I   come    running right o-


G|------- ------- ------- -------|------- ------- ------- -------|
D|6------------------------------|6-------5-------6-------5------|
A|----------------6--------------|-------------------------------|
E|-------------------------------|-------------------------------|
      ver,                            I   just    couldn't believe


G|------- ------- ------- -------|------- ------- ------- -------|
D|-------------------------------|----------------6-------5------|
A|8---------------8--------------|8-------6----------------------|
E|-------------------------------|-------------------------------|
                              it,     I   just    couldn't believe


G|------- ------- ------- -------|------- ------- ------- -------|
D|-------------------------------|-------------------------------|
A|8---------------8--------------|----------------8--------------|
E|-------------------------------|8------------------------------|
                              it.         Woah,   ba  -   by, ba-


G|------- ------- ------- -------|------- ------- ------- -------|
D|-------------------------------|-------------------------------|
A|6------------------------------|6------------------------------|
E|----------------6--------------|----------------6-------7------|
              by,                     you must be out of  your


G|------- ------- ------- -------|------- ------- ------- -------|
D|-------------------------------|-------------------------------|
A|----------------10----------10-|------------------------10-----|
E|8------------------------------|8-----------8---11-------------|
  mind,                                                   Do  you


G|------- ------- ------- -------|------- ------- ------- -------|
D|-------------------------------|-------------------------------|
A|11-----------------------------|10----------8------------------|
E|----------------11-------------|----------------11------10-----|
  know    what    kickin' a - way?
              you're

G|------- ------- ------- -------|------- ------- ------- -------|
D|-------------------------------|-------------------------------|
A|-------------------------------|-------------------------------|
E|8------------------------------|-------------------------------|
      We've   a   groo -  vy  thing       going,  ba  -   by,
          got

G|------- ------- ------- -------|------- ------- ------- -------|
D|-------------------------------|-------------------------------|
A|-------------------------------|-------------------------------|
E|3------------------------------|-------------------------------|
          got a   groovy      thing.


G|------- ------- ------- -------|------- ------- ------- -------|
D|-------------------------------|----------------------------5--|
A|3---------------3--------------|3---------------3--------------|
E|-------------------------------|-------------------------------|



G|------- ------- ------- -------|------- ------- ------- -------|
D|-------------------------------|-------------------------------|
A|3---------------3--------------|3------------------------------|
E|-------------------------------|-------------------------------|
                                      I   never  done you no wrong,

Verse:
G|------- ------- ------- -------|------- ------- ------- -------|
D|-------------------------------|-------------------------------|
A|----------------5-------8------|-------------------------------|
E|6-----------6------------------|6------------------------------|
                                          never   hit you when you're


G|------- ------- ------- -------|------- ------- ------- -------|
D|-------------------------------|-------------------------------|
A|------------------------10-----|-------------------------------|
E|8-----------8---11-------------|8------------------------------|
  down,                                   Always gave you good lo-


G|------- ------- ------- -------|------- ------- ------- -------|
D|6---------------6--------------|6-------5-------6-------5------|
A|-------------------------------|-------------------------------|
E|-------------------------------|-------------------------------|
      vin',                           I   ne- ver ran a   -   round,


G|------- ------- ------- -------|------- ------- ------- -------|
D|-------------------------------|----------------6-------5------|
A|8---------------8--------------|8-------6----------------------|
E|-------------------------------|-------------------------------|
                                          ne- ver ran a   -   round.


G|------- ------- ------- -------|------- ------- ------- -------|
D|-------------------------------|-------------------------------|
A|8---------------8-----------8--|8---------------8--------------|
E|-------------------------------|-------------------------------|
                                          Woah,   ba  -   by, ba-


G|------- ------- ------- -------|------- ------- ------- -------|
D|-------------------------------|-------------------------------|
A|6------------------------------|6------------------------------|
E|----------------6--------------|----------------6--------------|
              by,                     you must be out of  your


G|------- ------- ------- -------|------- ------- ------- -------|
D|-------------------------------|-------------------------------|
A|----------------10-------------|------------------------10-----|
E|8------------------------------|8-----------8---11-------------|
  mind,                                                   Do  you


G|------- ------- ------- -------|------- ------- ------- -------|
D|-------------------------------|-------------------------------|
A|11--------------11-------------|10----------8------------------|
E|-------------------------------|----------------11------10-----|
  know    what    kickin' a - way?
              you're

G|------- ------- ------- -------|------- ------- ------- -------|
D|-------------------------------|-------------------------------|
A|-------------------------------|-------------------------------|
E|8------------------------------|-------------------------------|
      We've   a   groo -  vy  thing       going,  ba  -   by,
          got

G|------- ------- ------- -------|------- ------- ------- -------|
D|-------------------------------|-------------------------------|
A|-------------------------------|-------------------------------|
E|3------------------------------|-------------------------------|
          got a   groovy      thing.


G|------- ------- ------- -------|------- ------- ------- -------|
D|-------------------------------|----------------------------5--|
A|3---------------3--------------|3---------------3--------------|
E|-------------------------------|-------------------------------|



G|------- ------- ------- -------|------- ------- ------- -------|
D|-------------------------------|-------------------------------|
A|3---------------3--------------|3------------------------------|
E|-------------------------------|-------------------------------|
                                      There's     you ought to know,
                                          something
Verse:
G|------- ------- ------- -------|------- ------- ------- -------|
D|-------------------------------|-------------------------------|
A|----------------5-------8------|-------------------------------|
E|6-----------6------------------|6------------------------------|
                                          if you're fixing to go,


G|------- ------- ------- -------|------- ------- ------- -------|
D|-------------------------------|-------------------------------|
A|------------------------10-----|-------------------------------|
E|8-----------8---11-------------|8------------------------------|
                                      I   can't   make it without


G|------- ------- ------- -------|------- ------- ------- -------|
D|6---------------6--------------|6-------5-------6-------5------|
A|-------------------------------|-------------------------------|
E|-------------------------------|-------------------------------|
          you,                            no,     no, no,     no,


G|------- ------- ------- -------|------- ------- ------- -------|
D|-------------------------------|----------------6-------5------|
A|8---------------8--------------|8-------6----------------------|
E|-------------------------------|-------------------------------|
                  no,         no,         no, no, no, no,     no,


G|------- ------- ------- -------|------- ------- ------- -------|
D|-------------------------------|-------------------------------|
A|8---------------8--------------|----------------8--------------|
E|-------------------------------|8------------------------------|
                  no,         no!         Woah,   ba  -   by, ba-


G|------- ------- ------- -------|------- ------- ------- -------|
D|-------------------------------|-------------------------------|
A|6------------------------------|6------------------------------|
E|----------------6--------------|----------------6--------------|
              by,                     you must be out of  your


G|------- ------- ------- -------|------- ------- ------- -------|
D|-------------------------------|-------------------------------|
A|----------------10-------------|------------------------10-----|
E|8------------------------------|8-----------8---11-------------|
  mind,                                                   Do  you


G|------- ------- ------- -------|------- ------- ------- -------|
D|-------------------------------|-------------------------------|
A|11--------------11-------------|10----------8------------------|
E|-------------------------------|----------------11------10-----|
  know    what    kickin' a - way?
              you're

G|------- ------- ------- -------|------- ------- ------- -------|
D|-------------------------------|-------------------------------|
A|-------------------------------|-------------------------------|
E|8------------------------------|-------------------------------|
      We've   a   groo -  vy  thing       going,  ba  -   by,
          got

G|------- ------- ------- -------|------- ------- ------- -------|
D|-------------------------------|-------------------------------|
A|-------------------------------|-------------------------------|
E|3------------------------------|-------------------------------|
          got a   groovy      thing.

Outro:
G|------- ------- ------- -------|------- ------- ------- -------|
D|-------------------------------|-------------------------------|
A|3------------------------------|-------------------------------|
E|-------------------------------|-------------------------------|
      We've   a   groo -  vy  thing       going,  ba  -   by,
          got

G|------- ------- ------- -------|------- ------- ------- -------|
D|5------------------------------|-------------------------------|
A|-------------------------------|-------------------------------|
E|-------------------------------|-------------------------------|
          got a   groovy      thing.

Repeat and fade out...

Please e-mail me for any corrections, or write a comment.
            
Tabs too difficult? Try these video lessons and learn fast.




comments powered by Disqus
↑ Back to top | Tablatures and chords are parodies/interpretations of the original songs. You may use it for private study, scholarship, research or language learning purposes only