>
 >
Sounds Of Silence (Intro)

Sounds Of Silence (Intro) Guitar Tabs

Simon And Garfunkel - Sounds Of Silence (Intro) chords, tabs, tablatures, lyrics

Guitar lessons | Add/correct | Request | Top 50 tabs Artists:  A B C D E F G H I J K L M N O P Q R S T U V W X Y Z 0-9

Sounds Of Silence (Intro) Guitar Tabs – Simon And Garfunkel

CD, Sheet music, Poster

Do you like Sounds Of Silence (Intro)? Share with your friends now
Tabs
Sound of Silence 
Simon and garfunkel

I spent about an hour perfecting the intro so enjoy

Gtr I (E A D G B E) - 'Untitled'

  Q=95
 4/4
  Gtr I
  E E E E E E E E   E E E E E E E E   E E E E E E E E   E E E E E E E E
|---6---6---6---6-|---6---6---6---6-|---4---4---4---4-|---4---4---4---4--|
|-----6-------6---|-----6-------6---|-----4---6---4---|-----4---6---4----|
|-8-------8-------|-8-------8-------|-6---------------|-6----------------|
|-----------------|-----------------|-----------------|------------------|
|-----------------|-----------------|-----------------|------------------|
|-----------------|-----------------|-----------------|------------------|


  E E E E E E E E   E E E E E E E E   E E E E E E E E   E E E E E E E E
|---6---6---6---6-|---6---6---6---6-|---7---7---6---6-|-7-6---6---6---6-|
|-----6---7---6---|-----6---7---6---|-----7-------7---|-----7-------7---|
|-8---------------|-8---------------|-8-------6-------|---------6-------|
|-----------------|-----------------|-----------------|-----------------|
|-----------------|-----------------|-----------------|-----------------|
|-----------------|-----------------|-----------------|-----------------|


  E E E E E E E E   E E E E E E E E   E E E E E E E E   E E E E E E E E
|---7---7---6---6-|-7-6---6---7---7-|---7---7---7---7-|---7---7---2---2-|
|-----7-------7---|-----7-------7---|-----7-------7---|-----7-------2---|
|-8-------6-------|---------8-------|-9-------8-------|-9-------3-------|
|-----------------|-----------------|-----------------|-----------------|
|-----------------|-----------------|-----------------|-----------------|
|-----------------|-----------------|-----------------|-----------------|


  E E E E E E E E   E E E E E E E E   E E E E E E E E   E E E E E E E E
|---2---2---2---2-|---2---2---2---2-|---4---4---4---4-|---6---6---6---6-|
|-----2-------2---|-----2-------2---|-----6---4---6---|-----6---7---6---|
|-4-------3-------|-3-------3-------|-6---------------|-8---------------|
|-----------------|-----------------|-----------------|-----------------|
|-----------------|-----------------|-----------------|-----------------|
|-----------------|-----------------|-----------------|-----------------|


  W
|-6----|
|-6----|
|-8----|
|------|
|------|
|------|


Duration Legend
---------------
W - whole; H - half; Q - quarter; E - 8th; S - 16th; T - 32nd; X - 64th; a - acciaccatura
+ - note tied to previous; . - note dotted; .. - note double dotted
Uncapitalized letters represent notes that are staccato (1/2 duration)
Irregular groupings are notated above the duration line
Duration letters will always appear directly above the note/fret number it represents the
duration for.  Duration letters with no fret number below them represent rests.  Multi-
bar rests are notated in the form Wxn, where n is the number of bars to rest for.  Low
melody durations appear below the staff

Tablature Legend
----------------
 h   - hammer-on
 p   - pull-off
 b   - bend
 pb  - pre-bend
 r   - bend release (if no number after the r, then release immediately)
 /\  - slide into or out of (from/to "nowhere")
 s   - legato slide
 S   - shift slide
  - natural harmonic
[n]  - artificial harmonic
n(n) - tapped harmonic
 ~   - vibrato
 tr  - trill
 T   - tap
 TP  - trem. picking
 PM  - palm muting
\n/  - tremolo bar dip; n = amount to dip
 \n  - tremolo bar down
 n/  - tremolo bar up
/n\  - tremolo bar inverted dip
 =   - hold bend; also acts as connecting device for hammers/pulls
   - volume swell (louder/softer)
 x   - on rhythm slash represents muted slash
 o   - on rhythm slash represents single note slash

Misc Legend
-----------
 |  - bar
||  - double bar
||o - repeat start
o|| - repeat end
*|  - double bar (ending)
 :  - bar (freetime)
 $  - Segno
 &  - Coda
Tempo markers -  = BPM(8/16=s8/s16), where s8 = swing 8ths, s16 = swing 16ths





Comments


Popular Simon And Garfunkel tabs & chords
A Heart In New York Chords
A Poem On The Underground Wall Chords
For Emily, Whenever I May Find Her Chords
Homeward Bound 4 Chords
Overs Chords
Scarborough Fair 4 Chords
Cloudy 1 Tabs
Baby Driver Ukulele
Old Friends Ukulele
Scarborough Fair Ukulele


Song lyrics



↑ Back to top | Tablatures and chords are parodies/interpretations of the original songs. You may use it for private study, scholarship, research or language learning purposes only
© 2014 AZChords.com Contact us | Privacy policy | DMCA | Add/correct tabs | Request tabs | Top 50 tabs