» » »

Simon And Garfunkel, Scarborough Faircanticle Tabs (ver.2)

Artists:  A B C D E F G H I J K L M N O P Q R S T U V W X Y Z # 

Scarborough Faircanticle Tabs (ver.2)

Simon And Garfunkel Tabs
Rating:
0/5 (0 votes)
Scarborough Faircanticle lessons Tabs too difficult? Try these video lessons and learn fast
                Scarborough Fair

Hiya folks this is a classic song, so thought i would
tab it how i have played it for years.


Intro x 2

e:-------0----------------0--------|
H:-----1----1----------3-----3-----|
G:---2--------2------4----------4--|
D:---------------------------------|
A:-0--------------0----------------|
E:---------------------------------|


e:-------0------------0----------------3-------------0---------|
H:-----1------------1----1-----------0----0--------1----1------|
G:---2------------0--------0-------0--------0----2--------2----|
D:-------------------------------------------------------------|
A:-0-------0-2--3------------------------------0---------------|
E:-------------------------------3-----------------------------|
   Are     You  Going......                    Fair?


    H                                        H
e:-----------0---------------3--------------0-2-----------------|
H:-0-2-----1----1---------1-----1---------3-----3---------------|
G:-------2--------2-----2---------2-----2---------2-------------|
D:------------------------------------0-------------------------|
A:-0---0--------------0-----------------------------------------|
E:--------------------------------------------------------------|
   Parsley........

                   H
e:-------0----------------0---------------0----------------------|
H:-----1----1-----0-1---1---1-----------1------------------------|
G:---2--------2-------2-------2-------2--------------------------|
D:---------------------------------------------------------------|
A:-0--------------0----------------0---------0--2----------------|
E:---------------------------------------------------------------|
   thyme                           Re--mem-----------------------|ber

                  H
e:--------0--------------0--------------3-------------3----------|
H:------1---1----------1---1----------0---0---------0------------|
G:----0-------0------0-------0------0-------0-----0---------0----|
D:---------------0-2----------------------------0----------------|
A:--3----------------------------------------------------2-------|
E:--------------------------------3------------------------------|
    me...                       there...

                               Em                         The end
e:--------0------------3--------0-------------0--1-3----5--------|
H:------1------0-----0----------0------0--1-3-----------2--------|
G:----2------2-----0---------0--0----2------------------2--------|
D:------------------------------2-----------------------2--------|
A:--0---------------------------2---0-------------------0--------|
E:---------------3-------2------0--------------------------------|
   She once was...              *



*After you play the E minor chord go back to the intro and play x 2 again.Then play 
through the song again until the end.

That's it guys and have a nice day alright.

Fluoxetine.
            
Submit corrections

comments powered by Disqus
↑ Back to top | Simon And Garfunkel Tabs for Scarborough Faircanticle. Lyrics for acoustic guitar and electric guitar. Tablatures and chords are parodies/interpretations of the original songs. You may use it for private study, scholarship, research or language learning purposes only