» » »

Scarboro Fair Tabs (ver.1)

Artists:  A B C D E F G H I J K L M N O P Q R S T U V W X Y Z # 

Scarboro Fair Tabs (ver.1)

Simon And Garfunkel
Rating:
0/5 (0 votes)

Hard to play? Try these video lessons and learn fast.
                e|-------------------------------------------------------------------------|
B|-----------------------------------------------1----3---1-------0--------|
G|------------2---2---2----------------------2----------------2------0---2-|
D|---0---0------------------2---3---2---0----------------------------------|
A|-------------------------------------------------------------------------|
E|-------------------------------------------------------------------------|

e|--------------------------------------------------------------------------|
B|--------3---3---1---------------------------------------------------------|
G|---2----------------2---2---0------------------------2--0-----------------|
D|---------------------------------3---2-----------0---------3---2---0----0-|
A|------------------------------------------3---3-----------------------3---|
E|--------------------------------------------------------------------------|
            
Hard to play? Try these video lessons and learn fast. | Correct




comments powered by Disqus
↑ Back to top | Tablatures and chords are parodies/interpretations of the original songs. You may use it for private study, scholarship, research or language learning purposes only