>
 >
MRS. ROBINSON

MRS. ROBINSON Guitar Tabs

Simon And Garfunkel - MRS. ROBINSON chords, tabs, tablatures, lyrics

Guitar lessons | Add/correct | Request | Top 50 tabs Artists:  A B C D E F G H I J K L M N O P Q R S T U V W X Y Z 0-9

MRS. ROBINSON Guitar Tabs – Simon And Garfunkel

CD, Sheet music, Poster

Do you like MRS. ROBINSON? Share with your friends now
ChordsChords v2TabsTabs v2
----------------------------------------------------------------

    SIMON & GARFUNKEL MRS ROBINSON. From The Graduate soundtrack
                      album. Released 21st January 1968.

----------------------------------------------------------------






And here's to you, Mrs. Robinson
Jesus loves you more than you will know 
Wo, wo, wo
God bless you please, Mrs. Robinson
Heaven holds a place for those who pray 
Hey, hey, hey  Hey, hey, hey

We'd like to know a little bit about you for our files
We'd like to help you learn to help yourself
Look around you, all you see are sympathetic eyes
Stroll around the grounds until you feel at home

And here's to you, Mrs. Robinson
Jesus loves you more than you will know 
Wo, wo, wo
God bless you please, Mrs. Robinson
Heaven holds a place for those who pray 
Hey, hey, hey  Hey, hey, hey


Hide it in a hiding place where no one ever goes
Put it in your pantry with your cupcakes
It's a little secret, just the Robinsons' affair
Most of all, you've got to hide it from the kids

Coo, coo, ca-choo, Mrs Robinson
Jesus loves you more than you will know 
Wo, wo, wo
God bless you please, Mrs. Robinson
Heaven holds a place for those who pray
Hey, hey, hey  Hey, hey, hey 

Sitting on a sofa on a Sunday afternoon
Going to the candidates debate
Laugh about it, shout about it
When you've got to choose
Ev'ry way you look at it, you lose

Where have you gone, Joe DiMaggio
A nation turns its lonely eyes to you (Woo, woo, woo)
What's that you say, Mrs. Robinson
Joltin' Joe has left and gone away
(Hey, hey, hey...hey, hey, hey)




                    Use a capo on the 2nd fret


                                     
  (Mute "A" string)
  E
e|------- ------- ------- -------|------- ------- ------- -------|
B|-------------------------------|-------------------------------|
G|-------------------------------|-------------------------------|
D|2-----------2---2-------2---2--|----2---2---2---2-------2---2--|
A|-------------------------------|-------------------------------|
E|0-----------0---0-------0---0--|----0---0---0---0-------0---0--|

e|------- ------- ------- -------|------- ------- ------- -------|
B|-------------------------------|-------------------------------|
G|-------------------------------|-------------------------------|
D|----------------2---0-------2--|-------------------------------|
A|--------0-H-2------------------|-------------------------------|
E|----0--------------------------|-------------------------------|





e|------- ------- ------- -------|------- ------- ------- -------|
B|-------------------------------|-------------------------------|
G|-------------------------------|-------------------------------|
D|2-----------2---2-----------2--|--------2---2---2-------2------|
A|-------------------------------|-------------------------------|
E|0-----------0---0-----------0--|--------0---0---0-------0------|

e|------- ------- ------- -------|------- ------- ------- -------|
B|-------------------------------|-------------------------------|
G|-------------------------------|-------------------------------|
D|----------------2---0-------2--|-------------------------------|
A|--------0-H-2------------------|-------------------------------|
E|----0--------------------------|-------------------------------|





e|------- ------- ------- -------|------- ------- ------- -------|
B|-------------------------------|-------------------------------|
G|-------------------------------|-------------------------------|
D|2-----------2---2---2-------2--|2-------2---2---2---2---2------|
A|-------------------------------|-------------------------------|
E|0-----------0---0---0-------0--|0-------0---0---0---0---0------|

e|------- ------- ------- -------|------- ------- ------- -------|
B|-------------------------------|-------------------------------|
G|-------------------------------|-------------------------------|
D|----------------2---0-------2--|-------------------------------|
A|--------0-H-2------------------|-------------------------------|
E|----0--------------------------|-------------------------------|





e|------- ------- ------- -------|------- ------- ------- -------|
B|-------------------------------|-------------------------------|
G|-------------------------------|-------------------------------|
D|2-------2-------2-----------2--|----2-------2---2-------2------|
A|-------------------------------|-------------------------------|
E|0-------0-------0-----------0--|----0-------0---0-------0------|

e|------- ------- ------- -------|------- ------- ------- -------|
B|-------------------------------|-------------------------------|
G|-------------------------------|-------------------------------|
D|----------------2---0-------2--|-------------------------------|
A|--------0-H-2------------------|-------------------------------|
E|----0--------------------------|-------------------------------|

e|------- ------- ------- -------|------- ------- ------- -------|
B|-------------------------------|-------------------------------|
G|-------------------------------|-------------------------------|
D|-------------------------------|-------------------------------|
A|-------------------------------|------------------------10-B-11|
E|-------------------------------|-------------------------------|



  00:10

e|------- ------- ------- -------|------- ------- ------- -------|
B|-------------------------------|-------------------------------|
G|-------------------------------|-------------------------------|
D|--------2---------------2------|--------2-------2-------2------|
A|-------------------------------|-------------------------------|
E|--------0---------------0------|--------0-------0-------0------|
  Dee         dee dee dee     dee     dee         dee dee     dee
e|------- ------- ------- -------|------- ------- ------- -------|
B|-------------------------------|--------------------3----------|
G|-------------------------------|--------4----------------------|
D|----------------2---0-------2--|-------------------------------|
A|--------0-H-2------------------|-------------------------------|
E|----0--------------------------|-------------------------------|




                                          E7
e|------- ------- ------- -------|------- 0------ ----0-- -------|
B|-------------------------------|--------3-----------3----------|
G|-------------------------------|--------1-----------1----------|
D|2-------2---------------2------|--------2-----------2----------|
A|-------------------------------|--------2-----------2----------|
E|0-------0---------------0------|--------0-----------0----------|
      dee         dee dee     dee
e|------- ------- ------- -------|------- ------- ------- -------|
B|5----------B9-R-7---5----------|-------------------------------|     
G|-------------------------------|-------------------------------|
D|-------------------------------|------------2------------------|
A|-------------------------------|------------1-P-0---5----------|
E|-------------------------------|--------------------3----------|





e|0------ ----0-- ------- 0------|
B|3-----------3-----------3------|
G|1-----------1-----------1------|
D|2-----------2-----------2------|
A|2-----------2-----------2------|
E|0-----------0-----------0------|

e|------- ------- ------- -------|
B|-------------------------------|
G|----0-----------0--------------|
D|2-----------2-----------2------|
A|-------------------------------|
E|-------------------------------|




  A7
e|5---5-- 5------ ----5-- -------|5------ 5---5-- 5---5-- 5------|
B|8---8---8-----------8----------|8-------8---8---8---8---8------|
G|6---6---6-----------6----------|6-------6---6---6---6---6------|
D|5---5---5-----------5----------|5-------5---5---5---5---5------|
A|7---7---7-----------7----------|7-------7---7---7---7---7------|
E|5---5---5-----------5----------|5-------5---5---5---5---5------|
  Doo         doo doo doo     doo     doo         doo doo     doo




e|5------ 5------ 5---5-- 5------|5---5-- ----5-- ----5-- 5------|
B|8-------8-------8---8---8------|8---8-------8-------8---8------|
G|6-------6-------6---6---6------|6---6-------6-------6---6------|
D|5-------5-------5---5---5------|5---5-------5-------5---5------|
A|7-------7-------7---7---7------|7---7-------7-------7---7------|
E|5-------5-------5---5---5------|5---5-------5-------5---5------|

e|------- ------- ------- -------|------- ------- ------- -------|
B|-------------------------------|-------------------------------|
G|-------------------------------|------------------------0-H-2--|
D|-------------------------------|----------------0-H-2----------|
A|-------------------------------|--------0-H-2------------------|
E|-------------------------------|-------------------------------|




  D                               G
e|2------ 2------ ----2-- -------|3------ 3------ 3---3-- -------|
B|3-------3-----------3----------|0-------0-------0---0----------|
G|2-------2-----------2----------|0-------0-------0---0----------|
D|0-------0-----------0----------|0-------0-------0---0----------|
A|-------------------------------|2-------2-------2---2----------|
E|-------------------------------|3-------3-------3---3----------|
          Dee dee dee dee     dee     dee         dee dee     dee



  C                               Am      A5
e|0------ 0------ 0---0-- -------|0------ ------- ------- -------|
B|1-------1-------1---1----------|1------------------------------|
G|0-------0-------0---0----------|2-------2---2---2-------2---2--|
D|2-------2-------2---2----------|2-------2---2---2-------2---2--|
A|3-------3-------3---3----------|0-------0---0---0-------0---0--|
E|-------------------------------|--------0---0---0-------0---0--|
          dee     dee dee     dee
e|------- ------- ------- -------|------- ------- ------- -------|
B|-------------------------------|--------7-B-8------------------|
G|-------------------------------|--------7-B-9------------------|
D|-------------------------------|-------------------------------|
A|-------------------------------|-------------------------------|
E|-------------------------------|-------------------------------|





e|------- ------- ------- -------|
B|-------------------------------|
G|2-------2---2-------2---2---2--|
D|2-------2---2-------2---2---2--|
A|0-------0---0-------0---0---0--|
E|0-------0---0-------0---0---0--|




  E      
e|------- 0------ ------- -------|0------ ----0-- ------- 0------|
B|--------0----------------------|0-----------0-----------0------|
G|1-------1-----------1----------|1-------1---1-----------1------|
D|2-------2-----------2---2------|2-------2---2-------2---2------|
A|2-------2-----------2---2------|2-------2---2-------2---2------|
E|0-------0-----------0---0------|0-------0---0-------0---0------|




  D7
e|2------ 2------ ----2-- 2------|2------ 2---2-- ----2-- 2------|
B|1-------1-----------1---1------|1-------1---1-------1---1------|
G|2-------2-----------2---2------|2-------2---2-------2---2------|
D|0-------0-----------0---0------|0-------0---0-------0---0------|
A|-------------------------------|-------------------------------|
E|-------------------------------|-------------------------------|
                                          And     here's  to  you, 


  00:33
  G                               Em
e|3------ 3------ ------- 3------|0------ 0------ 0---0-- 0------|
B|0-------0---------------0------|0-------0-------0---0---0------|
G|0-------0---------------0------|0-------0-------0---0---0------|
D|0-------0---------------0------|2-------2-------2---2---2------|
A|2-------2---------------2------|2-------2-------2---2---2------|
E|3-------3---------------3------|0-------0-------0---0---0------|
             Mrs.                 Robinson




e|3------ 3------ ------- 3------|0------ 0---0-- 0---0-- 0------|
B|0-------0---------------0------|0-------0---0---0---0---0------|
G|0-------0---------------0------|0-------0---0---0---0---0------|
D|0-------0---------------0------|2-------2---2---2---2---2------|
A|2-------2---------------2------|2-------2---2---2---2---2------|
E|3-------3---------------3------|0-------0---0---0---0---0------|
 Jesus        loves       you more        than    you will    know 



  C
e|0------ 0---0-- 0---0-- 0---0--|0------ 0---0-- 0---0-- 0------|
B|1-------1---1---1---1---1---1--|1-------1---1---1---1---1------|
G|0-------0---0---0---0---0---0--|0-------0---0---0---0---0------|
D|2-------2---2---2---2---2---2--|2-------2---2---2---2---2------|
A|3-------3---3---3---3---3---3--|3-------3---3---3---3---3------|
E|-------------------------------|-------------------------------|
                                              Wo,     wo,     wo 



  D
e|2------ 2------ 2---2-- 2---2--|2---2-- 2---2-- 2---2-- 2------|
B|3-------3-------3---3---3---3--|3---3---3---3---3---3---3------|
G|2-------2-------2---2---2---2--|2---2---2---2---2---2---2------|
D|0-------0-------0---0---0---0--|0---0---0---0---0---0---0------|
A|-------------------------------|-------------------------------|
E|-------------------------------|-------------------------------|             
                                          God     bless   you please, 



  G                               Em
e|3------ 3---3-- ------- 3------|0------ 0------ 0---0-- 0------|
B|0-------0---0-----------0------|0-------0-------0---0---0------|
G|0-------0---0-----------0------|0-------0-------0---0---0------|
D|0-------0---0-----------0------|2-------2-------2---2---2------|
A|2-------2---2-----------2------|2-------2-------2---2---2------|
E|3-------3---3-----------3------|0-------0-------0---0---0------|
                  Mrs.        Robinson




e|3------ 3------ 3------ 3------|0------ 0---0-- 0---0-- 0------|
B|0-------0-------0-------0------|0-------0---0---0---0---0------|
G|0-------0-------0-------0------|0-------0---0---0---0---0------|
D|0-------0-------0-------0------|2-------2---2---2---2---2------|
A|2-------2-------2-------2------|2-------2---2---2---2---2------|
E|3-------3-------3-------3------|0-------0---0---0---0---0------|
  Heaven      holds       a   place   for     those   who     pray 



  C
e|0------ 0------ 0---0-- 0---0--|0------ 0---0-- 0---0-- 0------|
B|1-------1-------1---1---1---1--|1-------1---1---1---1---1------|
G|0-------0-------0---0---0---0--|0-------0---0---0---0---0------|
D|2-------2-------2---2---2---2--|2-------2---2---2---2---2------|         
A|3-------3-------3---3---3---3--|3-------3---3---3---3---3------|
E|-------------------------------|-------------------------------|
                                          
                                              Hey,    hey,    hey


  Am              
e|0------ 0------ 0---0-- 0---0--|------- 0---0-- 0---0-- 0------|
B|1-------1-------1---1---1---1--|--------1---1---1---1---1------|
G|2-------2-------2---2---2---2--|--------2---2---2---2---2------|
D|2-------2-------2---2---2---2--|--------2---2---2---2---2------|
A|0-------0-------0---0---0---0--|--------0---0---0---0---0------|
E|-------------------------------|-------------------------------|             
                                              Hey,    hey,    hey



  
e|------- ------- ------- -------|------- ------- ------- -------|
B|-------------------------------|-------------------------------|
G|-------------------------------|-------------------------------|
D|2-------2---2---2---2---2---2--|2-------2-------2-------2---2--|
A|-------------------------------|-------------------------------|
E|0-------0---0---0---0---0---0--|0-------0-------0-------0---0--|

e|------- ------- ------- -------|------- ------- ------- -------|
B|-------------------------------|-------------------------------|
G|-------------------------------|-------------------------------|
D|----------------2---0-------2--|-------------------------------|
A|--------0-H-2------------------|-------------------------------|
E|----0--------------------------|-------------------------------|             

e|------- ------- ------- -------|------- ------- ------- -------|
B|-------------------------------|-------------------------------|
G|-------------------------------|-------------------------------|
D|-------------------------------|-------------------------------|
A|-------------------------------|--------10-B-11--------R-------|
E|-------------------------------|-------------------------------|





e|------- ------- ------- -------|------- ------- ------- -------|
B|-------------------------------|-------------------------------|
G|-------------------------------|-------------------------------|
D|2-------2-------2-------2---2--|--------2---2---2-------2------|
A|-------------------------------|-------------------------------|
E|0-------0-------0-------0---0--|--------0---0---0-------0------|
                                                          We'd 
e|------- ------- ------- -------|------- ------- ------- -------|
B|-------------------------------|-------------------------------|
G|-------------------------------|-------------------------------|
D|----------------2---0-------2--|-------------------------------|
A|--------0-H-2------------------|-------------------------------|
E|----0--------------------------|-------------------------------|        



                  01:00

e|------- ------- ------- -------|------- ------- ------- -------|
B|-------------------------------|-------------------------------|
G|-------------------------------|-------------------------------|
D|2-------2-------2-------2------|2-------2-------2-------2------|
A|-------------------------------|-------------------------------|
E|0-------0-------0-------0------|0-------0-------0-------0------|
  like    to  know        a       little      bit         about
e|------- ------- ------- -------|------- ------- ------- -------|
B|-------------------------------|--------------------3----------|
G|-------------------------------|--------4----------------------|
D|----------------2---0-------2--|-------------------------------|
A|--------0-H-2------------------|-------------------------------|
E|----0--------------------------|-------------------------------|
 




e|------- ------- ------- -------|------- 0------ ----0-- -------|
B|-------------------------------|--------3-------x---3-------x--|
G|-------------------------------|--------1-------x---1-------x--|
D|2---------------2--------------|2-------2-------x---2-------x--|
A|-------------------------------|2-------2-----------2----------|
E|0---------------0--------------|0-------0-----------0----------|
          you for     our     files
e|------- ------- ------- -------|------- ------- ------- -------|
B|5----------B9-R-7---5----------|-------------------------------|     
G|-------------------------------|-------------------------------|
D|-------------------------------|------------2------------------|
A|-------------------------------|------------1-P-0---5----------|
E|-------------------------------|--------------------3----------|

e|------- ------- ------- -------|------- ------- ------- -------|
B|5----------B9-R-7---5----------|-------------------------------|
G|-------------------------------|-------------------------------|     
D|-------------------------------|------------2---2--------------|
A|-------------------------------|------------2-P-0---5----------|
E|-------------------------------|--------------------3----------|






e|0------ ----0-- 0---0-- 0------|
B|3-------x---3---3---3---3------|
G|1-------x---1---1---1---1------|
D|2-------x---2---2---2---2------|
A|2-----------2---2---2---2------|
E|0-----------0---0---0---0------|
                          We'd
e|------- ------- ------- -------|
B|-------------------------------|
G|----0-----------0--------------|
D|----0-------2---0-------2------|
A|------------2-----------2------|
E|-------------------------------|





e|5------ 5------ 5---5-- 5------|5------ 5------ 5------ 5------|
B|8-------8-------8---8---8------|8-------8-------8-------8------|
G|6-------6-------6---6---6------|6-------6-------6-------6------|
D|5-------5-------5---5---5------|5-------5-------5-------5------|
A|7-------7-------7---7---7------|7-------7-------7-------7------|
E|5-------5-------5---5---5------|5-------5-------5-------5------|
  like    to  help    you         learn   to  help        yourself
e|0------ ------- ------- -------|------- ------- ------- -------|
B|2------------------------------|-------------------------------|
G|2------------------------------|-------------------------------|
D|2------------------------------|-------------------------------|
A|0------------------------------|-------------------------------|
E|-------------------------------|-------------------------------|





e|5------ 5------ 5---5-- 5------|5------ ----5-- 5---5-- 5------|
B|8-------8-------8---8---8------|8-----------8---8---8---8------|
G|6-------6-------6---6---6------|6-----------6---6---6---6------|
D|5-------5-------5---5---5------|5-----------5---5---5---5------|
A|7-------7-------7---7---7------|7-----------7---7---7---7------|
E|5-------5-------5---5---5------|5-----------5---5---5---5------|

e|------- ------- ------- -------|------- ------- ------- -------|
B|-------------------------------|-------------------------------|
G|-------------------------------|------------------------0-H-2--|
D|-------------------------------|----------------0-H-2----------|
A|-------------------------------|--------0-H-2------------------|
E|-------------------------------|-------------------------------|





e|2------ 2------ 2---2-- 2------|3------ 3------ 3---3-- 3------|
B|3-------3-------3---3---3------|0-------0-------0---0---0------|
G|2-------2-------2---2---2------|0-------0-------0---0---0------|
D|0-------0-------0---0---0------|0-------0-------0---0---0------|
A|-------------------------------|2-------2-------2---2---2------|
E|-------------------------------|3-------3-------3---3---3------|
          Look around     you,    all     you see     are 



  C               G6              Am
e|0------ 0------ 0------ 0------|0------ ------- ------- -------|
B|1-------1-------3-------3------|1-------x---x---x-------x---x--|
G|0-------0-------0-------0------|2-------x---x---x-------x---x--|
D|2-------2-------0-------0------|2-------x---x---x-------x---x--|
A|3-------3-------2-------2------|0------------------------------|
E|-------------------------------|-------------------------------|
  sympathetic                 eyes
e|------- ------- ------- -------|------- ------- ------- -------|
B|-------------------------------|--------7-B-8-R-7-------5------|
G|-------------------------------|--------7-B-8-R-7-------5------|
D|-------------------------------|-------------------------------|
A|-------------------------------|-------------------------------|
E|-------------------------------|-------------------------------|





e|------- ------- ------- -------|
B|x-------x---x---x---x---x---x--|
G|x-------x---x---x---x---x---x--|
D|x-------x---x---x---x---x---x--|
A|-------------------------------|
E|-------------------------------|

e|------- ------- ------- -------|
B|-------------------------------|
G|7-B-8---------R-7-------5------|
D|7-B-8---------R-7-------5------|
A|-------------------------------|
E|-------------------------------|




  E
e|0------ 0------ ----0-- -------|0------ ----0-- 0---0-- 0------|
B|0-------0-----------0----------|0-----------0---0---0---0------|
G|1-------1-----------1----------|1-----------1---1---1---1------|
D|2-------2-----------2----------|2-----------2---2---2---2------|
A|2-------2-----------2----------|2-----------2---2---2---2------|
E|0-------0-----------0----------|0-----------0---0---0---0------|
          Stroll              around      the grounds     until 
              
e|------- ------- ------- -------|------- ------- ------- -------|
B|-------------------------------|-------------------------------|
G|-------------------------------|-------------------------------|
D|6-\----------------------------|-------------------------------|
A|-------------------------------|-------------------------------|
E|-------------------------------|-------------------------------|




  D
e|2------ 2------ ----2-- -------|2------ ----2-- ----2-- 2------|
B|3-------3-----------3----------|3-----------3-------3---3------|
G|2-------2-----------2----------|2-----------2-------2---2------|
D|0-------0-----------0----------|0-----------0-------0---0------|
A|-------------------------------|-------------------------------|
E|-------------------------------|-------------------------------|            
          you     feel   at  home        And     here's  to  you, 


    01:23         

e|3------ 3------ 3------ 3------|0------ 0---0-- 0---0-- 0------|
B|0-------0-------0-------0------|0-------0---0---0---0---0------|
G|0-------0-------0-------0------|0-------0---0---0---0---0------|
D|0-------0-------0-------0------|2-------2---2---2---2---2------|
A|2-------2-------2-------2------|2-------2---2---2---2---2------|
E|3-------3-------3-------3------|0-------0---0---0---0---0------|
             Mrs.                 Robinson




e|3------ 3------ 3------ 3------|0------ 0---0-- 0---0-- 0------|
B|0-------0-------0-------0------|0-------0---0---0---0---0------|
G|0-------0-------0-------0------|0-------0---0---0---0---0------|
D|0-------0-------0-------0------|2-------2---2---2---2---2------|
A|2-------2-------2-------2------|2-------2---2---2---2---2------|
E|3-------3-------3-------3------|0-------0---0---0---0---0------|
 Jesus        loves       you more        than    you will    know 




e|0------ 0---0-- 0---0-- 0---0--|0---0-- 0---0-- 0---0-- 0------|
B|1-------1---1---1---1---1---1--|1---1---1---1---1---1---1------|
G|0-------0---0---0---0---0---0--|0---0---0---0---0---0---0------|
D|2-------2---2---2---2---2---2--|2---2---2---2---2---2---2------|
A|3-------3---3---3---3---3---3--|3---3---3---3---3---3---3------|
E|-------------------------------|-------------------------------|
                                              Wo,     wo,     wo 




e|2------ 2------ 2---2-- 2---2--|----2-- 2---2-- 2---0-- 0------|
B|3-------3-------3---3---3---3--|----3---3---3---3---0---0------|
G|2-------2-------2---2---2---2--|----2---2---2---2---0---0------|
D|0-------0-------0---0---0---0--|----0---0---0---0---0---0------|
A|-------------------------------|-------------------------------|
E|-------------------------------|-------------------------------|             
                                          God     bless   you please, 




e|3------ 3---3-- 3------ 3------|0------ 0---0-- 0------ 0------|
B|0-------0---0---0-------0------|0-------0---0---0-------0------|
G|0-------0---0---0-------0------|0-------0---0---0-------0------|
D|0-------0---0---0-------0------|2-------2---2---2-------2------|
A|2-------2---2---2-------2------|2-------2---2---2-------2------|
E|3-------3---3---3-------3------|0-------0---0---0-------0------|
                  Mrs.        Robinson




e|3------ 3---3-- 3------ 3------|0------ 0---0-- 0---0-- 0------|
B|0-------0---0---0-------0------|0-------0---0---0---0---0------|
G|0-------0---0---0-------0------|0-------0---0---0---0---0------|
D|0-------0---0---0-------0------|2-------2---2---2---2---2------|
A|2-------2---2---2-------2------|2-------2---2---2---2---2------|
E|3-------3---3---3-------3------|0-------0---0---0---0---0------|
  Heaven      holds       a   place   for     those   who     pray 




e|0------ 0------ 0---0-- 0---0--|0---0-- 0------ 0---0-- 0------|
B|1-------1-------1---1---1---1--|1---1---1-------1---1---1------|
G|0-------0-------0---0---0---0--|0---0---0-------0---0---0------|
D|2-------2-------2---2---2---2--|2---2---2-------2---2---2------|         
A|3-------3-------3---3---3---3--|3---3---3-------3---3---3------|
E|-------------------------------|-------------------------------|                                          
                                              Hey,    hey,    hey        




e|0------ 0------ 0---0-- 0---0--|0------ 0---0-- ------- 0------|
B|1-------1-------1---1---1---1--|1-------1---1-----------1------|
G|2-------2-------2---2---2---2--|2-------2---2-----------2------|
D|2-------2-------2---2---2---2--|2-------2---2-----------2------|
A|0-------0-------0---0---0---0--|0-------0---0-----------0------|
E|-------------------------------|-------------------------------|             
                                              Hey,    hey,    hey
e|------- ------- ------- -------|------- ------- ------- -------|
B|-------------------------------|-------------------------------|
G|-------------------------------|-------------------------------|
D|-------------------------------|-------------------------------|
A|-------------------------------|------------------------10-B-11|
E|-------------------------------|-------------------------------|



  01:44

e|------- ------- ------- -------|------- ------- ------- -------|
B|-------------------------------|-------------------------------|
G|-------------------------------|-------------------------------|
D|2-------2---2---2---2---2---2--|2-------2---2---2-------2---2--|
A|-------------------------------|-------------------------------|
E|0-------0---0---0---0---0---0--|0-------0---0---0-------0---0--|

e|------- ------- ------- -------|------- ------- ------- -------|
B|-------------------------------|-------------------------------|
G|-------------------------------|-------------------------------|
D|----------------2---0-------2--|-------------------------------|
A|--------0-H-2------------------|-------------------------------|
E|----0--------------------------|-------------------------------|





e|------- ------- ------- -------|------- ------- ------- -------|
B|-------------------------------|-------------------------------|
G|-------------------------------|-------------------------------|
D|2-------2---2---2-------2---2--|----2---2-------2-------2------|
A|-------------------------------|-------------------------------|
E|0-------0---0---0-------0---0--|----0---0-------0-------0------|
                                                          We'd 
e|------- ------- ------- -------|------- ------- ------- -------|
B|-------------------------------|-------------------------------|
G|-------------------------------|-------------------------------|
D|----------------2---0-------2--|-------------------------------|
A|--------0-H-2------------------|-------------------------------|
E|----0--------------------------|-------------------------------| 

e|------- ------- ------- -------|------- ------- ------- -------|
B|-------------------------------|-------------------------------|
G|-------------------------------|-------------------------------|
D|-------------------------------|-------------------------------|
A|-------------------------------|--------10-B-11----------------|
E|-------------------------------|-------------------------------|


    The same for the next two verses and choruses at 01:49, 02:11,
    02:39 and 03:02.


  CODA
  03:23                                                                          

e|------- ------- ------- -------|------- ------- ------- -------|
B|-------------------------------|-------------------------------|
G|-------------------------------|-------------------------------|
D|2-------2---2---2-------2---2--|2-------2---2---2-------2------|
A|-------------------------------|-------------------------------|
E|0-------0---0---0-------0---0--|0-------0---0---0-------0------|

e|------- ------- ------- -------|------- ------- ------- -------|
B|-------------------------------|-------------------------------|
G|-------------------------------|-------------------------------|
D|----------------2---0-------2--|-------------------------------|
A|--------0-H-2------------------|-------------------------------|
E|----0--------------------------|-------------------------------|

e|------- ------- ------- -------|------- ------- ------- -------|
B|-------------------------------|-------------------------------|
G|-------------------------------|-------------------------------|
D|-------------------------------|-------------------------------|
A|-------------------------------|--------10-B-11----------------|
E|-------------------------------|-------------------------------|





e|------- ------- ------- -------|------- ------- ------- -------|
B|-------------------------------|-------------------------------|
G|-------------------------------|-------------------------------|
D|2-------2-------2---2---2---2--|----2---2-------2---2---2------|
A|-------------------------------|-------------------------------|
E|0-------0-------0---0---0---0--|----0---0-------0---0---0------|
                                                        
e|------- ------- ------- -------|------- ------- ------- -------|
B|-------------------------------|-------------------------------|
G|-------------------------------|-------------------------------|
D|----------------2---0-------2--|-------------------------------|
A|--------0-H-2------------------|-------------------------------|
E|----0--------------------------|-------------------------------|        





e|------- ------- ------- -------|------- ------- ------- -------|
B|-------------------------------|-------------------------------|
G|-------------------------------|-------------------------------|
D|2-------2-------2---2---2---2--|----2---2-------2---2---2---2--|
A|-------------------------------|-------------------------------|
E|0-------0-------0---0---0---0--|----0---0-------0---0---0---0--|
                                                         
e|------- ------- ------- -------|------- ------- ------- -------|
B|-------------------------------|--------------------3----------|
G|-------------------------------|--------4----------------------|
D|----------------2---0-------2--|-------------------------------|
A|--------0-H-2------------------|-------------------------------|
E|----0--------------------------|-------------------------------|





e|------- ------- ------- -------|------- ------- ------- -------|
B|-------------------------------|-------------------------------|
G|-------------------------------|-------------------------------|
D|2-------2-------2---2---2---2--|----2---2-------2-------2------|
A|-------------------------------|-------------------------------|
E|0-------0-------0---0---0---0--|----0---0-------0-------0------|

e|------- ------- ------- -------|------- ------- ------- -------|
B|5-----------7B9R7---5----------|-------------------------------|     
G|-------------------------------|------------2------------------|
D|-------------------------------|------------2------------------|
A|-------------------------------|------------1-P-0--------------|
E|-------------------------------|--------------------3B4--------|






e|------- ------- ------- -------|------- ------- ------- -------|
B|-------------------------------|-------------------------------|
G|-------------------------------|-------------------------------|
D|2-------2---2---2---2---2---2--|2-------2----------------------|
A|-------------------------------|-------------------------------|
E|0-------0---0---0---0---0---0--|0-------0----------------------|

e|------- ------- ------- -------|------- ------- ------- -------|
B|-------------------------------|-------------------------------|
G|-------------------------------|-------------------------------|
D|----5-----------5-----------7--|--------5-----------7----------|
A|----4-----------4-----------4--|--------4-----------4----------|
E|0-----------0-----------0------|----0-----------0--------------|





e|------- ------- ------- -------|------- ------- ------- -------|
B|-------------------------------|-------------------------------|
G|-------------------------------|-------------------------------|
D|----5-----------5-----------7--|--------5-----------5----------|
A|----4-----------4H5---------4--|--------2-----------2----------|
E|0-----------0-----------0------|----0-----------0--------------|
 
  ..............................Fade.............................



e|------- ------- ------- -------|------- ------- ------- -------|
B|-------------------------------|-------------------------------|
G|----4-----------4-----------4--|--------4-----------4----------|
D|----1-----------1-----------1--|--------1-----------1----------|
A|2-----------2-----------2------|2-----------2------------------|
E|-------------------------------|-------------------------------|

  ...............................................................



e|------- ------- ------- -------|------- ------- ------- -------|
B|-------------------------------|-------------------------------|
G|-------------------------------|-------------------------------|
D|----------------2---0-------2--|-------------------------------|
A|--------0-H-2------------------|-------------------------------|
E|----0--------------------------|-------------------------------|  

e|------- 0------ ------- -------|------- ------- ------- -------|
B|--------0----------------------|-------------------------------|
G|--------4B5R4-B-5-R-4---~------|-------------------------------|
D|-------------------------------|-------------------------------|
A|-------------------------------|-------------------------------|
E|-------------------------------|-------------------------------|

  ...............................................................



e|------- ------- ------- -------|------- ------- ------- -------|
B|-------------------------------|-------------------------------|
G|-------------------------------|-------------------------------|
D|----------------2---0-------2--|-------------------------------|
A|--------0-H-2------------------|-------------------------------|
E|----0--------------------------|-------------------------------|  

e|------- ------- ------- -------|------- ------- ------- -------|
B|-------------------------------|--------7-B-8------------------|
G|-------------------------------|--------7-B-9------------------|
D|-------------------------------|-------------------------------|
A|-------------------------------|-------------------------------|
E|-------------------------------|-------------------------------|

  ...............................................................



e|------- ------- ------- -------|------- ------- ------- -------|
B|-------------------------------|-------------------------------|
G|-------------------------------|-------------------------------|
D|----------------2---0-------2--|-------------------------------|
A|--------0-H-2------------------|-------------------------------|
E|----0--------------------------|-------------------------------|  

  ...............................................................



e|------- ------- ------- -------|------- ------- ------- -------|
B|-------------------------------|-------------------------------|
G|-------------------------------|-------------------------------|
D|----------------2---0-------2--|-------------------------------|
A|--------0-H-2------------------|-------------------------------|
E|----0--------------------------|-------------------------------|  

  ...............................................................







        B  Bend
        R  Release
        /  Slide up
        \  Slide down
        H  Hammer-on
        P  Pull-off
        ~  Vibrato
        +  Harmonic
        x  Mute note
        .  Play note like a dot in standard notation
        ^  Ties two notes together
        (. Pause





Comments


Popular Simon And Garfunkel tabs & chords
A Most Peculiar Man Chords
America Chords
America 3 Chords
Cecilia Chords
Sun Is Burning Chords
Hazy Shade Of Winter 1 Tabs
Sound Of Silence 3 Tabs
A Church Is Burning Ukulele
Bright Eyes Ukulele
Go Tell It On The Mountains Ukulele


Song lyrics



↑ Back to top | Tablatures and chords are parodies/interpretations of the original songs. You may use it for private study, scholarship, research or language learning purposes only
© 2014 AZChords.com Contact us | Privacy policy | DMCA | Add/correct tabs | Request tabs | Top 50 tabs