>
 >
Kathy's Song 1

Kathy's Song 1 Guitar Tabs

Simon And Garfunkel - Kathy's Song 1 chords, tabs, tablatures, lyrics

Guitar lessons | Add/correct | Request | Top 50 tabs Artists:  A B C D E F G H I J K L M N O P Q R S T U V W X Y Z 0-9

Kathy's Song 1 Guitar Tabs – Simon And Garfunkel

CD, Sheet music, Poster

Do you like Kathy's Song 1? Share with your friends now
TabsTabs v2
Kathy's Song

Words/Music by Paul Simon
Tablature by Frederik Esser

This tab is developed from the one by John Nimis. I don't claim it to be
better, but it's certainly a lot closer to the recorded version (on sound of
silence).

Intro:

E ----------0-----|----------0-----|----------0-----|----------0-----|
B ----------------|----------------|----------------|----------------|
G ----0-------0---|----0-------0---|----0-------0---|----0-----------|
D 4-------4-------|4-------4-------|4-------4-------|4-------4-\-2---|
A ----------------|----------------|----------------|----------------|
E +---+---+---+---|+---+---+---+---|+---+---+---+---|+---+---+---+---|

  G	 C/G		G           G     C/G		G
E ----------------|----------------|----------------|----------------| 
B ----0h1---1--p0-|----0-----0-----|--0--h1---1--p0-|----0-----0-----| 
G ----------------|------0---------|------0---------|------0---------|
D ----0h2-----2p0-|----0-------0---|----0h2-----2p0-|----0-------0---|
A ----------------|----------------|----------------|----------------|
E 3---+---3---+---|3---+---3---+---|3---+---3---+---|3---+---3---+---|



Verses:

  G	           C/G              C/G              G			
E -(3)-----(3)----|----------------|----------------|----------------|  
B --0-------0-----|--1-------1-----|--1-------1-----|0---------0-----|  
G ------0-------0-|------0-------0-|------0-------0-|------0---------|  
D ----0-------0---|----2-------2---|----2-------2---|----0-------0---|  
A ----------------|----------------|----------------|----------------|  
E 3---+---3---+---|3---+---3---+---|3---+---3---+---|3---+---3---+---| 
      I hear the   drizzle          of          the rain,

                   Am               Am/G    G        C       /B  /C
E 3---------------|----------------|----------------|----------------|  
B ----------0-----|1---------1-----|0---------0-----|1---------------|  
G ------0---------|------2-----2---|------2---------|------0---------|  
D ----0-------0---|----2-----------|----2-------0---|----2----(0)----|  
A ----------------|0-------0-------|----------------|3-------2---3---|  
E 3---+---3---+---|+---+---+---+---|3---+---3---+---|----+-------+---| 
                           like a   me-     mo-      ry      it  falls,

  D/F#                              G                Bm/F#
E ----------------|2---------------|----------------|----------------|  
B 3---------3-----|----------3-----|--3-------3-----|3---------3-----|  
G ------2---------|------2---------|------4---------|------4---------|  
D ----0-------0---|----0-------0---|----5-------5---|----4-------4---|  
A ----------------|----------------|----------------|----------------|  
E 2---+---2---+---|2---+---2---+---|3---+---3---+---|2---+---2---+---| 
                                            soft and warm,       con-

  G                C                                 Am
E ----------------|----------------|0---------------|----------------|  
B ---(0)----------|1---------1-----|----------1-----|1---------1-----|  
G ----0-----------|------0---------|------0-------0-|------2-------2-|  
D ----0-----------|----2-------2---|----2-------2---|----2-------2---|  
A --------0---2---|3-------3-------|3-------3-------|0-------0-------|  
E 3---+---+---+---|+---+---+---+---|+---+---+---+---|+---+---+---+---| 
  ti-     nu- ing,                                           tapping

  Am/G             D                G       C/G       G       C/G   ad lib
E ----------------|------2---------|----------------||----------------||
B 0---------0-----|----------3-----|----------1-----||0---------1-----||
G ------2---------|----2-------2---|------0---------||.-----0--------.||
D ----2-------2---|0---------------|----0h2-----2---||.---0h2-----2--.||
A ----------------|----------------|----------------||----------------||
E 3---+---3---+---|+---+---+---+---|3---+---3---+---||3---+---3---+---||
  on      my       roof  and        walls.
(omit this bar in
 the 2nd verse    )


Bridge:

  G       C/G      Dsus
E ----------------|----------------|5---------------|----------------|  
B 0---------1-----|3---------3-----|----------3-----|3---------3-----|
G ------0---------|------0---------|------0---------|------0---------|
D ----0h2-----2---|----4-------4---|----4-------4---|----4-------4---|
A ----------------|----------------|----------------|----------------|
E 3---+---3---+---|5---+---5---+---|5---+---5---+---|5---+---5---+---|

                   G       C/G       G       C/G   ad lib
E ----------------|----------------||----------------||
B 3---------3-----|----------1-----||0---------1-----||
G ------0---------|------0---------||.-----0--------.||
D ----4-------4---|----0h2-----2---||.---0h2-----2--.||
A ----------------|----------------||----------------||
E 5---+---5---+---|3---+---3---+---||3---+---3---+---||


Lyrics:

(intro)

I hear the drizzle of the rain,
like a memory it falls,
soft and warm, continuing,
tapping on my roof and walls.

And from the shelter of my mind,
through the window of my eyes
I gaze beyond the rain-drenched streets,
to England where my heart lies.

(bridge)

My mind's distracted and diffused,
my thoughts are many miles away.
They lie with you when you're asleep,
and kiss you when you start your day.

And a song I was writing is left undone.
I don't know why I spend my time
writing songs I can't believe
with words that tear and strain to rhyme.

(bridge)

And so you see I have come to doubt
all that I once held as true.
I stand alone without beliefs.
The only truth I know is you.

And as I watch the drops of rain
weave their weary paths and die
I know that I am like the rain.
There but for the grace of you go I.

(solo verse)

-- 
Frederik Esser                      \/   Just because you're paranoid





Comments


Popular Simon And Garfunkel tabs & chords
Kathys Song Chords
Red Rubber Ball 2 Chords
Scarborough Fair 6 Chords
Dangling Tabs
Flowers Never Bend Tabs
Peggy O Tabs
Scarborough Fair 2 Tabs
Leaves That Are Green Ukulele
Red Rubber Ball Ukulele
Sun Is Burning Ukulele


Song lyrics



↑ Back to top | Tablatures and chords are parodies/interpretations of the original songs. You may use it for private study, scholarship, research or language learning purposes only
© 2014 AZChords.com Contact us | Privacy policy | DMCA | Add/correct tabs | Request tabs | Top 50 tabs