» » »

Simon And Garfunkel, Homeward Bound Bass tabs (ver.1)

Artists:  A B C D E F G H I J K L M N O P Q R S T U V W X Y Z # 

Homeward Bound Bass tabs (ver.1)

Simon And Garfunkel Tabs
 Rating:
4/5 (4 votes)
Homeward Bound lessons Tabs too difficult? Try these video lessons and learn fast
                Homeward Bound
Simon and Garfunkel
Written by Paul Simon; released as a single with "Leaves That Are Green" as 
the B-side, and on the album "Parsley, Sage, Rosemary and Thyme".

Intro:
G|-------------------------------------------|
D|-------------------------------------------|
A|-------------------------------------------|
E|-------------------------------------------|



G|------------------------------------------------------------|
D|------------------------------------------------------------|
A|------------------------------------------------------------|
E|------------------------------------------------------------|
                                                      I'm

Verse:
G|------- ------- ------- -------|------- ------- ------- -------|
D|8------------------------------|8------------------------------|
A|-------------------------------|-------------------------------|
E|-------------------------------|-------------------------------|
  sittin'         in      the rail -  way     sta  -  tion, got a


G|------- ------- ------- -------|------- ------- ------- -------|
D|7------------------------------|7------------------------------|
A|-------------------------------|-------------------------------|
E|-------------------------------|-------------------------------|
  ticket      for             my  des  -  ti- na  -   tion,


G|------- ------- ------- -------|------- ------- ------- -------|
D|6------------------------------|6------------------------------|
A|-------------------------------|-------------------------------|
E|-------------------------------|-------------------------------|
                                                          mm-


G|------- ------- ------- -------|------- ------- ------- -------|
D|5---------------5--------------|5------------------------------|
A|-------------------------------|--------8-------6-------5------|
E|-------------------------------|-------------------------------|
  mm,


G|------- ------- ------- -------|------- ------- ------- -------|
D|-------------------------------|------------------------5------|
A|-------------------------------|-------------------------------|
E|8---------------8--------------|8---------------8--------------|
  On  a       tour        of      one     night   stands, my


G|------- ------- ------- -------|------- ------- ------- -------|
D|6---------------6--------------|6---------------6--------------|
A|-------------------------------|-------------------------------|
E|-------------------------------|-------------------------------|
  suit -  case    and     guitar      in  hand,               And


G|------- ------- ------- -------|------- ------- ------- -------|
D|8---------------8--------------|8---------------8--------------|
A|-------------------------------|-------------------------------|
E|-------------------------------|-------------------------------|
  eve  -  ry      stop    is  neat   -    ly      planned for a


G|------- ------- ------- -------|------- ------- ------- -------|
D|-------------------------------|-------------------------------|
A|8---------------8--------------|8-------6-------5--------------|
E|-------------------------------|------------------------8------|
  po   -  et      and     a   one  -  man         band.

Refrain:
G|------- ------- ------- -------|------- ------- ------- -------|
D|-------------------------------|-------------------------------|
A|-------------------------------|------------------------5------|
E|6---------------6--------------|6---------------8--------------|
                                  Home         -          ward


G|------- ------- ------- -------|------- ------- ------- -------|
D|-------------------------------|----------------5-------7------|
A|6---------------6-----------6--|6-------8----------------------|
E|-------------------------------|-------------------------------|
  bound,                                  I       wish    I


G|------- ------- ------- -------|------- ------- ------- -------|
D|8-----------8---8--------------|8------------------------------|
A|-------------------------------|----------------8--------------|
E|-------------------------------|-------------------------------|
          was                     home         -          ward


G|------- ------- ------- -------|------- ------- ------- -------|
D|-------------------------------|----------------5-------7------|
A|6---------------6-----------6--|6-------8----------------------|
E|-------------------------------|-------------------------------|
  bound.


G|------- ------- ------- -------|------- ------- ------- -------|
D|8-----------8---8-----------10-|--------8---------------8------|
A|-------------------------------|----------------10-------------|
E|-------------------------------|-------------------------------|
  Home,               where my thought's  es  -   ca  -   ping,


G|------- ------- ------- -------|------- ------- ------- -------|
D|----------------------------10-|--------8---------------8------|
A|-------------------------------|----------------10-------------|
E|6---------------6--------------|-------------------------------|
  home,               where my mu    -    sic's   pla  -  ying,


G|------- ------- ------- -------|------- ------- ------- -------|
D|----------------------------10-|--------8---------------8------|
A|-------------------------------|----------------10-------------|
E|6---------------6--------------|-------------------------------|
  Home,               where my love       lies    wai  -  ting


G|------- ------- ------- -------|------- ------- ------- -------|
D|-------------------------------|8------------------------------|
A|8---------------8--------------|-------------------------------|
E|-------------------------------|-------------------------------|
  si  -   lent -  ly      for             me.


G|------- ------- ------- -------|
D|-------------------------------|
A|------------------------8------|
E|-------------------------------|


Verse:
G|------- ------- ------- -------|------- ------- ------- -------|
D|8------------------------------|8------------------------------|
A|-------------------------------|-------------------------------|
E|-------------------------------|-------------------------------|
  Every           day's       an  endless         stream      of


G|------- ------- ------- -------|------- ------- ------- -------|
D|7---------------7--------------|7---------------7--------------|
A|-------------------------------|-------------------------------|
E|-------------------------------|-------------------------------|
  cigarettes              and     ma  -   ga- zines,


G|------- ------- ------- -------|------- ------- ------- -------|
D|6---------------6--------------|6---------------6--------------|
A|-------------------------------|-------------------------------|
E|-------------------------------|-------------------------------|
                                                          mm-


G|------- ------- ------- -------|------- ------- ------- -------|
D|5---------------5--------------|5------------------------------|
A|-------------------------------|--------8-------6-------5------|
E|-------------------------------|-------------------------------|
  mm,                                                         And


G|------- ------- ------- -------|------- ------- ------- -------|
D|-------------------------------|------------------------5------|
A|-------------------------------|-------------------------------|
E|8-----------------------8------|8---------------8--------------|
  each    town        looks   the same    to      me,     the


G|------- ------- ------- -------|------- ------- ------- -------|
D|6---------------6--------------|6---------------6--------------|
A|-------------------------------|-------------------------------|
E|-------------------------------|-------------------------------|
  mo  -   vies    and     the fac  -  to- ries,               And


G|------- ------- ------- -------|------- ------- ------- -------|
D|8---------------8--------------|8---------------8--------------|
A|-------------------------------|-------------------------------|
E|-------------------------------|-------------------------------|
  eve  -  ry      stran - ger's   face    I       see     re- minds


G|------- ------- ------- -------|------- ------- ------- -------|
D|-------------------------------|-------------------------------|
A|8---------------8--------------|8-------6-------5--------------|
E|-------------------------------|------------------------8------|
          me      that I          long    to  be

Refrain:
G|------- ------- ------- -------|------- ------- ------- -------|
D|-------------------------------|-------------------------------|
A|-------------------------------|------------------------5------|
E|6---------------6--------------|6-----------8------------------|
                                  Home         -          ward


G|------- ------- ------- -------|------- ------- ------- -------|
D|-------------------------------|----------------5-------7------|
A|6-----------6---6-----------6--|6-------8----------------------|
E|-------------------------------|-------------------------------|
  bound,                                  I       wish    I


G|------- ------- ------- -------|------- ------- ------- -------|
D|8-----------8---8--------------|8------------------------------|
A|-------------------------------|----------------8--------------|
E|-------------------------------|-------------------------------|
          was                     home         -          ward


G|------- ------- ------- -------|------- ------- ------- -------|
D|-------------------------------|----------------5-------7------|
A|6-----------6---6-----------6--|6-------8----------------------|
E|-------------------------------|-------------------------------|
  bound.


G|------- ------- ------- -------|------- ------- ------- -------|
D|8-----------8---8-----------10-|--------8---------------8------|
A|-------------------------------|----------------10-------------|
E|-------------------------------|-------------------------------|
  Home,               where my thought's  es  -   ca  -   ping,


G|------- ------- ------- -------|------- ------- ------- -------|
D|----------------------------10-|--------8---------------8------|
A|-------------------------------|----------------10-------------|
E|6-----------6---6--------------|-------------------------------|
  home,               where my mu    -    sic's   pla  -  ying,


G|------- ------- ------- -------|------- ------- ------- -------|
D|----------------------------10-|--------8---------------8------|
A|-------------------------------|----------------10-------------|
E|6-----------6---6--------------|-------------------------------|
  Home,               where my love       lies    wai  -  ting


G|------- ------- ------- -------|------- ------- ------- -------|
D|-------------------------------|8------------------------------|
A|8-----------------------8------|-------------------------------|
E|-------------------------------|-------------------------------|
  si  -   lent -  ly      for             me.


G|------- ------- ------- -------|
D|-------------------------------|
A|------------------------8------|
E|-------------------------------|
                              To-

Verse:
G|------- ------- ------- -------|------- ------- ------- -------|
D|8------------------------------|8------------------------------|
A|-------------------------------|-------------------------------|
E|-------------------------------|-------------------------------|
  night I'll      sing    my      songs   a - gain,       I'll
  ooooooooooooooooooooooooooooooooooooooooooooooooooooooooooooooo

G|------- ------- ------- -------|------- ------- ------- -------|
D|7------------------------------|7------------------------------|
A|-------------------------------|-------------------------------|
E|-------------------------------|-------------------------------|
  play    the game                and     pre      -      tend,
  ooooooooooooooooooooooooooooooooooooooooooooooooooooooooooooooo

G|------- ------- ------- -------|------- ------- ------- -------|
D|6------------------------------|6------------------------------|
A|-------------------------------|-------------------------------|
E|-------------------------------|-------------------------------|
                                                          mm-
  ooooooooooooooooooooooooooooooooooooooooooooooooooooooooooooooo

G|------- ------- ------- -------|------- ------- ------- -------|
D|5------------------------------|5------------------------------|
A|-------------------------------|--------8-------6-------5------|
E|-------------------------------|-------------------------------|
  mm,                                                         But
  oooooooooooooooooooooooooooooooooooooooooooooooo

G|------- ------- ------- -------|------- ------- ------- -------|
D|-------------------------------|------------------------5------|
A|-------------------------------|-------------------------------|
E|8------------------------------|8---------------8--------------|
  all     my      words   come    back    to  me          in


G|------- ------- ------- -------|------- ------- ------- -------|
D|6---------------6--------------|6---------------6--------------|
A|-------------------------------|-------------------------------|
E|-------------------------------|-------------------------------|
  shades  of      me  -   di- oc- ri- ty,                 Like


G|------- ------- ------- -------|------- ------- ------- -------|
D|8---------------8--------------|8---------------8--------------|
A|-------------------------------|-------------------------------|
E|-------------------------------|-------------------------------|
  emp  -  ti- ness    in      har -   mo- ny,             I


G|------- ------- ------- -------|------- ------- ------- -------|
D|-------------------------------|-------------------------------|
A|8---------------8-----------8--|8-------6-------5--------------|
E|-------------------------------|------------------------8------|
  need    some -  one     to  com    -    fort    me.

Refrain:
G|------- ------- ------- -------|------- ------- ------- -------|
D|-------------------------------|-------------------------------|
A|-------------------------------|------------------------5------|
E|6---------------6--------------|6-----------6---8--------------|
                                  Home         -          ward


G|------- ------- ------- -------|------- ------- ------- -------|
D|-------------------------------|----------------5-------7------|
A|6-----------6---6-----------6--|6-------8----------------------|
E|-------------------------------|-------------------------------|
  bound,                                  I       wish    I


G|------- ------- ------- -------|------- ------- ------- -------|
D|8---------------8--------------|8------------------------------|
A|-------------------------------|----------------8--------------|
E|-------------------------------|-------------------------------|
  was                             home         -          ward


G|------- ------- ------- -------|------- ------- ------- -------|
D|-------------------------------|----------------5-------7------|
A|6-----------6---6-----------6--|6-------8----------------------|
E|-------------------------------|-------------------------------|
  bound.


G|------- ------- ------- -------|------- ------- ------- -------|
D|8---------------8-----------10-|--------8---------------8------|
A|-------------------------------|----------------10-------------|
E|-------------------------------|-------------------------------|
  Home,               where my thought's  es  -   ca  -   ping,


G|------- ------- ------- -------|------- ------- ------- -------|
D|----------------------------10-|--------8---------------8------|
A|-------------------------------|----------------10-------------|
E|6---------------6--------------|-------------------------------|
  home,               where my mu    -    sic's   pla  -  ying,


G|------- ------- ------- -------|------- ------- ------- -------|
D|----------------------------10-|--------8---------------8------|
A|-------------------------------|----------------10-------------|
E|6---------------6--------------|-------------------------------|
  Home,               where my love       lies    wai  -  ting


G|------- ------- ------- -------|------- ------- ------- -------|
D|-------------------------------|8------------------------------|
A|8-----------------------8------|-------------------------------|
E|-------------------------------|-------------------------------|
  si  -   lent -  ly      for             me,


G|------- ------- ------- -------|
D|-------------------------------|
A|-------------------------------|
E|-------------------------------|


Outro:
G|------- ------- ------- -------|------- ------- ------- -------|
D|7------------------------------|------------------------7------|
A|-------------------------------|-------------------------------|
E|-------------------------------|-------------------------------|
                                  si  -   lent -  ly      for                                  


G|------- ------- ------- -------|------- ------- ------- -------|
D|6---------------6--------------|6---------------6--------------|
A|-------------------------------|-------------------------------|
E|-------------------------------|-------------------------------|
          me.


G|-------------------------------------------|
D|8------------------------------------------|
A|-------------------------------------------|
E|-------------------------------------------|

Please e-mail me for any corrections, or write a comment.
            
Submit corrections

comments powered by Disqus
↑ Back to top | Simon And Garfunkel Bass for Homeward Bound. Lyrics for acoustic guitar and electric guitar. Tablatures and chords are parodies/interpretations of the original songs. You may use it for private study, scholarship, research or language learning purposes only