>
 >
Hazy Shade Of Winter

Hazy Shade Of Winter Bass Tabs

Simon And Garfunkel - Hazy Shade Of Winter chords, tabs, tablatures, lyrics

Guitar lessons | Add/correct | Request | Top 50 tabs Artists:  A B C D E F G H I J K L M N O P Q R S T U V W X Y Z 0-9

Hazy Shade Of Winter Bass Tabs – Simon And Garfunkel

CD, Sheet music, Poster

Do you like Hazy Shade Of Winter? Share with your friends now
Bass TabsChordsChords v2Chords v3TabsTabs v2Ukulele
A Hazy Shade Of Winter
Simon And Garfunkel
Written by Paul Simon; released as a single with "For Emily, Whenever I May 
Find Her" as the B-side, and on the album "Bookends".

Intro:
G|------- ------- ------- -------|------- ------- ------- -------|
D|-------------------------------|-------------------------------|
A|-------------------------------|-------------------------------|
E|-------------------------------|-------------------------------|



G|------- ------- ------- -------|------- ------- ------- -------|
D|-------------------------------|-------------------------------|
A|-------------------------------|-------------------------------|
E|-------------------------------|-------------------------------|


Verse:
G|------- ------- ------- -------|------- ------- ------- -------|
D|-------------------------------|-------------------------------|
A|5-----------5---5---5-------5--|----------------5---5-------3--|
E|-------------------------------|------------5------------------|
  Time,       time,       time,               see     what's  be-


G|------- ------- ------- -------|------- ------- ------- -------|
D|-------------------------------|-------------------------------|
A|----------------3---3-------3--|----------------3---3-------1--|
E|------------3------------------|------------3------------------|
  come of     me,                                         While I


G|------- ------- ------- -------|------- ------- ------- -------|
D|-------------------------------|-------------------------------|
A|----------------1---1-------1--|----------------1---1----------|
E|------------1------------------|------------1------------------|
      looked  a       round               for my      pos  -  si-


G|------- ------- ------- -------|------- 2------ 3------ -------|
D|----------------2-------3------|5-----------------------5------|
A|3-------5----------------------|-------------------------------|
E|-------------------------------|-------------------------------|
  bi- li-     ties,                               I   was     so


G|------- ------- ------- -------|------- ------- ------- -------|
D|-------------------------------|-------------------------------|
A|3-------3-------3---3---3------|3---3---3---3---3---3---3------|
E|----------------------------3--|-------------------------------|
  hard        to  please,                             But look around,


G|------- ------- ------- -------|------- ------- ------- -------|
D|-------------------------------|-------------------------------|
A|-------------------------------|-------------------------------|
E|-------------------------------|-------------------------------|
                      leaves  are brown,              and the sky


G|------- ------- ------- -------|------- ------- ------- -------|
D|-------------------------------|-------------------------------|
A|-------------------------------|-------------------------------|
E|-------------------------------|-------------------------------|
                      is  a   ha  -   zy      shade       of  win-

Verse:
G|------- ------- ------- -------|------- ------- ------- -------|
D|-------------------------------|-------------------------------|
A|5---------------5---5-------5--|----------------5---5-------3--|
E|-------------------------------|------------5------------------|
      ter.                             Hear  the  sal- va -  tion


G|------- ------- ------- -------|------- ------- ------- -------|
D|-------------------------------|-------------------------------|
A|----------------3---3-------3--|----------------3---3-------1--|
E|------------3------------------|------------3------------------|
  ar  -   my  band


G|------- ------- ------- -------|------- ------- ------- -------|
D|-------------------------------|-------------------------------|
A|----------------1---1-------1--|----------------1---1----------|
E|------------1------------------|------------1------------------|
  Down    by  the riverside, it's bound to be a better ride   than


G|------- ------- ------- -------|------- 2------ 3------ -------|
D|----------------2-------3------|5-----------------------5------|
A|3-------5----------------------|-------------------------------|
E|-------------------------------|-------------------------------|
  what you've got planned,                        car- ry    your


G|------- ------- ------- -------|------- ------- ------- -------|
D|-------------------------------|-------------------------------|
A|3-------3-------3-------3------|3-------3-------3-------3------|
E|----------------------------3--|----------------------------3--|
  cup  in    your hand,                               And look around,


G|------- ------- ------- -------|------- ------- ------- -------|
D|-------------------------------|-------------------------------|
A|-------------------------------|-------------------------------|
E|-------------------------------|-------------------------------|
                      leaves  brown,                  and the sky
                          are

G|------- ------- ------- -------|------- ------- ------- -------|
D|-------------------------------|-------------------------------|
A|-------------------------------|-------------------------------|
E|-------------------------------|-------------------------------|
                      is  a   ha  -   zy      shade       of  win-

Verse:
G|------- ------- ------- -------|------- ------- ------- -------|
D|--------------------7----------|-------------------------------|
A|5---------------5-----------5--|----------------5---5-------3--|
E|------------5------------------|------------5------------------|
      ter.                                Hang on     to your hopes,


G|------- ------- ------- -------|------- ------- ------- -------|
D|-------------------------------|-------------------------------|
A|----------------3---3-------3--|----------------3---3----------|
E|------------3------------------|------------3------------------|
      my      friend,


G|------- ------- ------- -------|------- ------- ------- -------|
D|-------------------------------|-------------------------------|
A|1---------------1---1-------1--|----------------1---1----------|
E|------------1------------------|------------1------------------|
  That's an easy thing to say,    if your hope    pass a- way,
                              but             should

G|------- ------- ------- -------|------- 2------ 3------ -------|
D|----------------2-------3------|5-----------------------5------|
A|3-------5----------------------|-------------------------------|
E|-------------------------------|-------------------------------|
  simply     pre- tend                            that you   can


G|------- ------- ------- -------|------- ------- ------- -------|
D|-------------------------------|-------------------------------|
A|3-------3-------3-------3------|3-------3---3---3-------3------|
E|----------------------------3--|----------------------------3--|
  build them a -  gain.                               Look a- round,


G|------- ------- ------- -------|------- ------- ------- -------|
D|-------------------------------|-------------------------------|
A|-------------------------------|-------------------------------|
E|-------------------------------|-------------------------------|
                      grass is high,                  the fields are


G|------- ------- ------- -------|------- ------- ------- -------|
D|-------------------------------|-------------------------------|
A|-------------------------------|-------------------------------|
E|-------------------------------|-------------------------------|
  ripe,               it's the springtime     of      my      life.

Bridge:
G|------- ------- ------- -------|------- ------- ------- -------|
D|-------------------------------|-------------------------------|
A|5---------------5---5----------|5---------------5---5----------|
E|----------------------------5--|------------5------------------|



G|------- ------- ------- -------|------- ------- ------- -------|
D|-------------------------------|-------------------------------|
A|1---------------1---1----------|1---------------1---1----------|
E|------------1---------------1--|------------1------------------|
          Aah,                         sea - sons change  with the


G|------- ------- ------- -------|------- ------- ------- -------|
D|3---------------3---3-------3--|----------------3---3----------|
A|------------3------------------|------------3---------------3--|
E|-------------------------------|-------------------------------|
      scene - ry,                         Weaving time    in  a


G|------- ------- ------- -------|------- ------- ------- -------|
D|-------------------------------|-------------------------------|
A|----------------3---3----------|3-------1-------3-------3------|
E|------------3---------------3--|-------------------------------|
      ta- pestry,                      Won't you  stop and   re-

Verse:
G|------- ------- ------- -------|------- ------- ------- -------|
D|-------------------------------|-------------------------------|
A|5---------------5---5-------5--|----------------5---5-------3--|
E|------------5------------------|------------5------------------|
  mem    -    ber         me


G|------- ------- ------- -------|------- ------- ------- -------|
D|-------------------------------|-------------------------------|
A|----------------3---3-------3--|----------------3---3-------1--|
E|------------3------------------|------------3------------------|
             at  a - ny  conve   -   nient   time?


G|------- ------- ------- -------|------- ------- ------- -------|
D|-------------------------------|-------------------------------|
A|----------------1---1-------1--|----------------1---1----------|
E|------------1------------------|------------1------------------|
  Funny how   my  memory skips    looking over manuscripts    of
                              while

G|------- ------- ------- -------|------- 2------ 3------ -------|
D|----------------2-------3------|5-----------------------5------|
A|3-------5----------------------|-------------------------------|
E|-------------------------------|-------------------------------|
  un - published  rhyme,                          drinking   my


G|------- ------- ------- -------|------- ------- ------- -------|
D|-------------------------------|-------------------------------|
A|3-------3-------3-------3------|3-------3---3---3-------3------|
E|----------------------------3--|----------------------------3--|
  vod- ka    and  lime,                               I   look around,


G|------- ------- ------- -------|------- ------- ------- -------|
D|-------------------------------|-------------------------------|
A|-------------------------------|-------------------------------|
E|-------------------------------|-------------------------------|
                      leaves are brown now,           and the sky


G|------- ------- ------- -------|------- ------- ------- -------|
D|-------------------------------|-------------------------------|
A|-------------------------------|-------------------------------|
E|-------------------------------|-------------------------------|
                      is  a   ha  -   zy      shade       of  win-

Outro:
G|------- ------- ------- -------|------- ------- ------- -------|
D|-------------------------------|-------------------------------|
A|-------------------------------|-------------------------------|
E|-------------------------------|-------------------------------|
      ter,            Look a- round,                  leaves are


G|------- ------- ------- -------|------- ------- ------- -------|
D|-------------------------------|-------------------------------|
A|-------------------------------|-------------------------------|
E|-------------------------------|-------------------------------|
  brown,            there's a patch   of      snow    on  the ground,


G|------- ------- ------- -------|------- ------- ------- -------|
D|-------------------------------|-------------------------------|
A|-------------------------------|-------------------------------|
E|-------------------------------|-------------------------------|
                      Look a- round,                  leaves are


G|------- ------- ------- -------|------- ------- ------- -------|
D|-------------------------------|-------------------------------|
A|-------------------------------|-------------------------------|
E|-------------------------------|-------------------------------|
  brown,            there's a patch   of      snow    on  the ground,


G|------- ------- ------- -------|------- ------- ------- -------|
D|-------------------------------|-------------------------------|
A|-------------------------------|-------------------------------|
E|-------------------------------|-------------------------------|
                      Look a- round,                  leaves are


G|------- ------- ------- -------|------- ------- ------- -------|
D|-------------------------------|-------------------------------|
A|-------------------------------|-------------------------------|
E|-------------------------------|-------------------------------|
  brown,            there's a patch   of      snow    on  the ground.

Please e-mail me for any corrections, or write a comment.





Comments


Popular Simon And Garfunkel tabs & chords
Weve Got A Groovy Thing Goin Bass Tabs
Homeward Bound Chords
I Am A Rock 1 Chords
Mrs Robinson 2 Chords
Scarborough Fair Chords
You Can Tell The World Chords
Hazy Shade Of Winter Intro Tabs
I Am A Rock 1 Tabs
Last Night I Had The Strangest Dream Tabs
Scarboro Fair Tabs


Song lyrics



↑ Back to top | Tablatures and chords are parodies/interpretations of the original songs. You may use it for private study, scholarship, research or language learning purposes only
© 2014 AZChords.com Contact us | Privacy policy | DMCA | Add/correct tabs | Request tabs | Top 50 tabs