» » »

Feelin Groovy Tabs (ver.1)

Artists:  A B C D E F G H I J K L M N O P Q R S T U V W X Y Z # 

Feelin Groovy Tabs (ver.1)

Simon And Garfunkel
Rating:
0/5 (0 votes)

Tabs too difficult? Try these video lessons and learn fast.
                THE 59TH STREET BRIDGE SONG (FEELIN' GROOVY) [by Paul Simon]
------------------------------------------------------------

I'm too lazy to type in all the words; the whole song follows this pattern:

C       G/B     Am7(4)  G
x32010  x2003x  x0001x  3x000x

And the tab is like this... (The tab isn't the same through the _entire_ 
song, but it's close to this.)


  C           G/B          Am7(4)    G
E ------0-----------------|------------------------|
B ------------3-----------|1---------0-------------|
G ----0-----0-----0-----0-|----0-----------0-----0-|
D ------------------0-----|------0-----------0-----|
A 3-----3-----2-----------|0-----------------------|
E ------------------------|------------3-----------|
  ^   . ^   . ^   . ^   .  ^   . ^   . ^   . ^   .   ( <--timing )


==-=--=---=----=-----=-------=---------=---------=-------=-----=----=---=--=-==
==-=--=---=----=-----=-------=---------=---------=-------=-----=----=---=--=-==
            
Tabs too difficult? Try these video lessons and learn fast.


comments powered by Disqus
↑ Back to top | Tablatures and chords are parodies/interpretations of the original songs. You may use it for private study, scholarship, research or language learning purposes only