» » »

El Condor Pasa Tabs (ver.3)

Artists:  A B C D E F G H I J K L M N O P Q R S T U V W X Y Z # 

El Condor Pasa Tabs (ver.3)

Simon And Garfunkel
Rating:
3/5 (3 votes)

Hard to play? Try these video lessons and learn fast.
                (Intro)
made by alex


this is a song that i learn in the school      haha

1 ------------------------------0-----3--0---5--3--0----0-----------------|
2 ---------------0--1--0--1--3----------------------------3--1--3--1------|
3 ------2--1--2-------------------------------------------------------2---|
4 --2---------------------------------------------------------------------|
5 ------------------------------------------------------------------------|
6 ------------------------------------------------------------------------|

1 ------------------------------------------------------------------------|
2 -1------1---------------------------------------------------------------|
3 ----2------2------------------------------------------------------------|
4 ------------------------------------------------------------------------|
5 ------------------------------------------------------------------------|
6 ------------------------------------------------------------------------|


that's all   good luck
            
Hard to play? Try these video lessons and learn fast. | Correct




comments powered by Disqus
↑ Back to top | Tablatures and chords are parodies/interpretations of the original songs. You may use it for private study, scholarship, research or language learning purposes only