» » »

Simon And Garfunkel, Baby Driver Tabs (ver.1)

Artists:  A B C D E F G H I J K L M N O P Q R S T U V W X Y Z # 

Baby Driver Tabs (ver.1)

Simon And Garfunkel Tabs
 Rating:
4.2/5 (5 votes)
Baby Driver lessons Tabs too difficult? Try these video lessons and learn fast
1
                Simon & Garfunkel
Bridge Over Troubled Water, 1970

Key: D 
Sounding Key: D#
Tuning Dropped D
Capo 1th fret. 


e|--2-2---2-2-2---2-2-2---2-2-----2--|--2-2---2-2-2---2-2-2---2-2-2---2--|
B|--3-3---3-3-3---3-3-3---3-3-----3--|--3-3---3-3-3---3-3-3---3-3-3---3--|
G|--2-------2-------2-------2--------|--2-------2-------2-------2--------|
D|--0-------0-------0-------0--------|--0-------0-------0-------0--------|
A|--0-------0---0---0-------0---0----|--0-------0---0---0-------0---0----|
D|--0---4---5-------0---4---5--------|--0---4---5-------0---4---5--------| 
 My daddy   family bassman      My    mamma     engineer           And I
       was a                              was an

e|--2-2---2-2-2---2-2-2---2-2-----2--|-----------------------------------|
B|--3-3---3-3-3---3-3-3---3-3-----3--|--0-0---0-0-0---0-0-0---0-0-0---0--|
G|--2-------2-------2-------2--------|--0-0---0-0-0---0-0-0---0-0-0---0--|
D|--0-------0-------0-------0--------|--0---------------0----------------|
A|--0-------0---0---0-------0---0----|------2---3---5-------2---3---5----|
D|--0---4---5-------0---4---5--------|--5---------------5----------------|
      was born  one  gray morn  with   music    in my     ears, in my 
                  dark                     coming

e|------2---2-2-2---2-2-2---2-2-2----|-----------------------------------|
B|------3---3-3-3---3-3-3---3-3-3----|--0-0---0-0-0---0-0-0---0-0-0---0--|
G|------2---2-4-2---2-4-2---2-4-2----|--0-0---0-0-0---0-0-0---0-0-0---0--|
D|------0---0-0-0---0-0-0---0-0-0----|--0---------------0----------------|
A|-----------------------------------|------2---3---5-------2---3---5----|
D|--0--------------------------------|--5---------------5----------------| 
   ears                     They call       me baby driver          And 
                                                                      once
                                                
e|-----------------------------------|--2-2---2-2-2---2-2-2---2-2--------|
B|--0-0---0-0-0---0-0-0-0-0-0-0---0--|--3-3---3-3-3---3-3-3---3-3--------|
G|--0-0---0-0-0---0-0-0-0-0-0-0---0--|--2-------2-------2-------2--------|
D|--0---------------5---2---3---5----|--0-------0-------0-------0--------|
A|------2---3---5---5---2---3---5----|--0-------0---0---0-------0---0----|
D|--5---------------5---2---3---5----|--0---4---5-------0---4---5--------|
     upon a pair      Hit  road I'm 
              of wheels the   and gone

e|--x---x---x---x-0-0-0---0-0-0---0--|--0-0-x-0-0-0-x-0-2-2---2-2-3---3--|
B|--7---6---5---4-0-0-0---0-0-0---0--|--0-0-x-0-2-0-x-0-3-3---3-3-2---2--|
G|--7---6---5---4---0-------0--------|--0---x---2---x---2-------2--------|
D|--7---6---5---4---2-------2--------|--2-------2-------0-------0--------|
A|--5---4---3---2---2---2---2---2----|--2-------0-------0-------0---0----|
D|------------------2-------2--------|--2---------------0---4---5--------| 
    What's        I wonder engine       ba pa pa pa pa  Scoot the 
        my num-ber     how your  feels pff                 down  road 

e|--x---x---x---x-0-0-0---0-0-0---0--|--0-0-x-0-0-0-x-0-2-2---2-2-3---3--|
B|--7---6---5---4-0-0-0---0-0-0---0--|--0-0-x-0-2-0-x-0-3-3---3-3-2---2--|
G|--7---6---5---4---0-------0--------|--0---x---2---x---2-------2--------|
D|--7---6---5---4---2-------2--------|--2-------2-------0-------0--------|
A|--5---4---3---2---2---2---2---2----|--2-------0-------0-------0---0----|
D|------------------2-------2--------|--2---------------0---4---5--------|
     What's        I wonder engine       
        my num-ber     how your  feels                    


My daddy was the family bassman
My mamma was an engineer
And I was born one dark gray morn
With music coming in my ears, In my ears.

They call me Baby Driver
And once upon a pair of wheels
Hit the road and I`m gone, ah, What`s my number
I wonder how your engine feels, Ba ba ba ba
Scoot down the road, What`s my number?
I wonder how your engine feels

Sha la lie, die da doo, die da doo
Die da doo doo doo-ie
Die-die-da-doo-ie

My daddy was a prominent frogman
My mamma`s in the Naval reserve
When I was young I carried a gun
But I never got the chance to serve, I did not serve

They call me Baby Driver 
And once upon a pair of wheels
Hit the road and I`m gone ah, What`s my number
I wonder how your engine feels, Ba ba ba ba
Scoot down the road, What`s my number?
I wonder how your engine feels

-Interlude- 

Ba paa ba paa ba paa paa-aah
Broem ba pa paa pa

My daddy got a big promotion
My mamma got a raise in pay
There`s no-one home, we`re all alone
Oh come into my room and play, Yes we can play.

I`m not talking about your pigtails
But I`m talking `bout your sex appeal
Hit the road and I`m gone ah, What`s my number?
I wonder how your engine feels, Ba ba ba ba
Scoot down the road, What`s my number?
I wonder how your engine feels
            
Submit corrections

comments powered by Disqus
↑ Back to top | Simon And Garfunkel Tabs for Baby Driver. Lyrics for acoustic guitar and electric guitar. 1 Tablatures and chords are parodies/interpretations of the original songs. You may use it for private study, scholarship, research or language learning purposes only