» » »

At The Zoo Bass tabs (ver.1)

Artists:  A B C D E F G H I J K L M N O P Q R S T U V W X Y Z # 

At The Zoo Bass tabs (ver.1)

Simon And Garfunkel
Rating:
0/5 (0 votes)

Hard to play? Try these video lessons and learn fast.
                
The bass doesn't actually come in until the "It's a light and tumble journey..." part, 
if you want to play along with the beginning, here it is tabbed out.

Beginning

G ------------------------------------------------------|
D ------------------------------------------------------|
A -0----/5----------------------------------------------|
E -----------3--2-0----0-2-3----3-2-0----0-2-3----3-2-0-|

The bass comes in here

Verse

G ---------------------------------------------------------7-5-------2---|
D -0-2-4-5---5-4-2---2-4-5---5-4-2---2-4-5---5-4-2---2-2-------7---4-----|
A ---------5-------2-------5-------2-------5-------2-----5-------5-----5-|
E -----------------------------------------------------------------------|

G -------------------------------------------------|
D -5---5-4-2---2-4-5---5-4-2---2-4-5---5-4-2---2-4-|
A ---5-------2-------5-------2-------5-------2-----|
E -------------------------------------------------|

Bridge

G ---------------------------------------------------------|
D ---------------2-222-2-2-2-2---------------2-222-2-2-2-2-|
A -0-000-0-0-0-0---------------0-000-0-0-0-0---------------|
E ---------------------------------------------------------|


Play the beginning again

Second Verse

G -----------------------------------------------------------------7-5---|
D -0-2-4-5---5-4-2---2-4-5---5-4-2---2-4-5---5-4-2---2-4-5-------------7-|
A ---------5-------2-------5-------2-------5-------2-------5-5-5-5-------|
E -----------------------------------------------------------------------|

Then

G -------------------------------------------------|
D -5---5-4-2---2-4-5---5-4-2---2-4-5---5-4-2---2-4-|
A ---5-------2-------5-------2-------5-------2-----|
E -------------------------------------------------|

Many times over and fade out
            
Hard to play? Try these video lessons and learn fast. | Correct




comments powered by Disqus
↑ Back to top | Tablatures and chords are parodies/interpretations of the original songs. You may use it for private study, scholarship, research or language learning purposes only