» » »

Anji Tabs (ver.1)

Artists:  A B C D E F G H I J K L M N O P Q R S T U V W X Y Z # 

Anji Tabs (ver.1)

Simon And Garfunkel
Rating:
4/5 (7 votes)

Hard to play? Try these video lessons and learn fast.
                looks like the one how Paul Simon plays it. 

Anji was first composed and recorded in 1961
all made a cover of the song. 

Personally I like the Paul Simon version more then the other ones. 
You might find some differences in tab like the bass-line or some 
hammer ons. But that’s why you’re looking for this version right? ;)

You can seperate the song in a few parts. Part A is the main part. 
I know it’s a though song to learn but it’s really going to be 
worth it. If you’re having trouble to learn the methode on this 
song or want to know the best way to play this you can always 
ask it in the commends or send me a Personal-Message.
Oh, I almost forgot, PUT THE CAPO ON THE SECOND FRET.

Also I would like to give my thanks to toytoypiano. 
Simon & Garfunkel covers and lessons.

11/8/10 - update: made a few beauty-corrections.

Enjoy!


Part A
E|-----||----------------|----------------|----------------|------------------|
B|-----||-----0h1-0------|-0h1-0----------|-----0h1-0------|-0h1-0------------|
G|-----||---2----2-----2-|----2---Oh1---0-h-2-2----2-----2-|----2---Oh1---1h--|
D|-----||----------------|----------------|----------------|------------------|
A|-----||-0--------------|----------------|----------------|------------------|
E|-0h3-||-----0---3--3---|-1---1--0---0---|-0---0---3--3---|-1---1--0---0-----|

 |----------------|----------------|-----------0-----|-----------0-------|
 |-----0h1-0------|-0h1-0----------|-----0h1-0-------|-1-----------------|
 |-2-2----2-----2-|----2---Oh1---1-h-2-2----2------2-|---2---Oh1-----1h--|
 |----------------|----------------|-----------------|-------------------|
 |----------------|----------------|-----------------|-----0-------------|
 |-0---0---3--3---|-1---1--0---0---|-0---0---3---0---|-1-------0---0-----|

 |-----------0-----|-----------0-----|-----------0-----|-----------------||
 |-----0h1-0-------|-1---------------|-----0h1-0-------|-1---------------||
 |-2-2----2------2-|---2---Oh1-----1-h-2-2----2------2-|---2---Oh1-------||
 |-----------------|-----------------|-----------------|-----------------||
 |-0---------------|-----0-----------|-0---------------|-----0-----------||
 |-----0---3---0---|-1-------0---0---|-----0---3---0---|-1-------0--0h3--||

Part B1
 ||-----------------|----------0-----|-----------------|-----------------|
 ||-----3b--3b------|-3b-3b--3b------|-----3b-(r)------|-----------------|
 ||---2---2---2---2-|------2-------2-|---2---2---2---0-h-1-1---2---2---2-|
 ||-----------------|----------------|-----------------|-----------------|
 ||-0---------------|----------------|-----------------|---------0-------|
 ||-----0---0---0---|-0--0---0---0---|-0---0---0---0---|-0---0-------3---|

 |-----------------|----------0-----|-----------------|-----------0^-----||
 |-----3b--3b------|-3b-3b--3b------|-----3b-(r)------|-----------1^-----||
 |---2---2---2---2-|------2-------2-|---2---2---2---0-h-1-1-------2^-----||
 |-----------------|----------------|-----------------|-----------2^-----||
 |-----------------|----------------|-----------------|--------0---------||
 |-0---0---0---0---|-0--0---0---0---|-0---0---0---0---|-0---0------------||

Part C1
 ||-------------|------0-------|--------------|------0----------|
 ||----1-1p0----|--------------|---1p0-1p0----|-----------------|
 ||----2-2p0--2-|-1--------1---|---2p0-2p0--2-|-1--------1------|
 ||----2-2p0--3-|-2------------|---2p0-2p0----|-2---------------|
 ||-----------3-|-2------------|-0------------|-2---------------|
 ||-0-----------|----0---0---0-|------------0-|----0---0---0----|

 |-------------|------0-------|-0---------------|--------------||
 |----1-1p0----|--------------|---3---1-0-------|--------------||
 |----2-2p0--2-|-1--------1---|-0---------------|--------------||
 |----2-2p0--3-|-2------------|---4---2-0-------|--------------||
 |-0---------3-|-2------------|-------------3-0-|---0----------||
 |-------------|----0-------0-|-----------------|------3--1--0-||

Part A2
 ||----------------|----------------|----------------|------------------|
 ||-----0h1-0------|-0h1-0----------|-----0h1-0------|-0h1-0------------|
 ||---2----2-----2-|----2---Oh1---1-h-2-2----2-----2-|----2---Oh1---1h--|
 ||----------------|----------------|----------------|------------------|
 ||----------------|----------------|----------------|------------------|
 ||-0---0---3--3---|-1---1--0---0---|-0---0---3--3---|-1---1--0---0-----|

 |----------------|----------------|-----0---------|-----------0--------|
 |-----0h1-0------|-0h1-0----------|--------0------|-0h1-0--------------|
 |-2-2----2-----2-|----2---Oh1---1-h-2-2---------2-|----2--Oh1-----1h---|
 |----------------|----------------|---------------|--------------------|
 |----------------|----------------|---------------|--------------------|
 |-0---0---3--3---|-1---1--0---0---|-0---0--3--0---|-1---1---0---0------|

 |-----------0-----|-----------0-----|-----------0-----|----------------||
 |-----0h1-0-------|-1---------------|-----0h1-0-------|-1--------------||
 |-2-2----2------2-|---2---Oh1-----1-h-2-2----2------2-|---2---Oh1------||
 |-----------------|-----------------|-----------------|----------------||
 |-0---------------|-----0-----------|-0---------------|-----0----------||
 |-----0---3---0---|-1-------0---0---|-----0---3---0---|-1-------0--0h3-||

Part B2
 ||-----------------|-----------0----|-----------------|-----------------|
 ||-----3b--3b------|-3b-3b--3b------|-----3b-(r)------|-----------------|
 ||---2---2---2---2-|------2---2---2-|---2---2---2---0-h-1-1---2---2---2-|
 ||-----------------|----------------|-----------------|-----------------|
 ||-0---------------|----------------|-----------------|---------0-------|
 ||-----0---0---0---|-0--0---0---0---|-0---0---0---0---|-0---0-------3---|

 |-----------------|------------0---|-----------------|-----------0^-----||
 |-----3b--3b------|-3b-3b--3b------|-----3b-(r)------|-----------1^-----||
 |---2---2---2---2-|------2---0---2-|---2---2---2---0-h-1-1-------2^-----||
 |-----------------|----------------|-----------------|-----------2^-----||
 |-----------------|----------------|-----------------|--------0---------||
 |-0---0---0---0---|-0--0---0---0---|-0---0---0---0---|-0---0------------||

Part C2
 ||-------------|------0-------|-------------|--------------------|
 ||----1-1p0----|------0-------|-/3--1--0----|-0------------------|
 ||----2-2p0--2-|-1--------1---|-----------2-|----2--1--1^--------|
 ||----2-2p0--3-|-2------------|-/4--2--0----|-0--------2^--------|
 ||-----------3-|-2------------|-----------3-|----3--2--2^--------|
 ||-0-----------|----0---0---0-|-------------|--------------------|

 |-------------|------0-------|-0------------/5-|---5--3--1--0---|
 |----1-1p0----|------0-------|---3---1-0-------|--------------3-|
 |----2-2p0--2-|-1--------1---|-0------------/5-|---5--4--2--0---|
 |----2-2p0--3-|-2------------|---4---2-0-------|--------------4-|
 |-----------3-|-2------------|-----------------|----------------|
 |-0-----------|----0---0---0-|-----------------|----------------|

 |--------------|---------------|---------------|------4-----4---||
 |---3--1--0----|------0h1p0----|------0h1p0----|------0-----0---||
 |------------2-|-1-/2--------2-|-1-/2--------2-|-1--------------||
 |---4--2--0----|------0h2p0----|------0h2p0----|----------------||
 |------------3-|-2-/3--------3-|-2-/3--------3-|-2--------------||
 |--------------|---------------|---------------|----0-----0-----||

Part A3
 ||----------------|----------------|----------------|------------------|
 ||-----0h1-0------|-0h1-0----------|-----0h1-0------|-0h1-0------------|
 ||---2----2-----2-|----2---Oh1---1-h-2-2----2-----2-|----2---Oh1---1h--|
 ||----------------|----------------|----------------|------------------|
 ||-0--------------|----------------|----------------|------------------|
 ||-----0---3--3---|-1---1--0---0---|-0---0---3--3---|-1---1--0---0-----|

 |----------------|-----------------||
 |-----0h1-0------|-0h1-0-----------||
 |-2-2----2-----2-|----2---Oh1------||
 |----------------|-----------------||
 |----------------|-----------------||
 |-0---0---3--3---|-1---1--0---0----||

Part D
 ||------------|---------------|-----------------|--------------|
 ||------------|---------------|-----------------|--------------|
 ||-2----------|-------------0-|-2---------------|----x---------|
 ||-2--------0-|-0h2--2-0h2----|-2---------------|----x---------|
 ||-0---0h3----|---------------|-0-----0h3p0-----|-0--x---------|
 ||------------|---------------|-------------0h3-|----x---0h3h4-|

  |------------|---------------|-----------------|---0-----0----||
  |------------|---------------|----------1------|---3-----1----||
  |---x--------|-------------0-|-x--------2------|---2-----2----||
  |---x------0-|-0h2--2-0h2----|-x--------2------|--------------||
  |-0-x-0h3----|---------------|-x---------------|--------------||
  |---x--------|---------------|------x----------|-x-----x------||

Part A2
 ||----------------|----------------|----------------|------------------|
 ||-----0h1-0------|-0h1-0----------|-----0h1-0------|-0h1-0------------|
 ||---2----2-----2-|----2---Oh1---1-h-2-2----2-----2-|----2---Oh1---1h--|
 ||----------------|----------------|----------------|------------------|
 ||-0--------------|----------------|----------------|------------------|
 ||-----0---3--3---|-1---1--0---0---|-0---0---3--3---|-1---1--0---0-----|

 |----------------|----------------|-----------0-----|-----------0------|
 |-----0h1-0------|-0h1-0----------|-----0h1-0-------|-1----------------|
 |-2-2----2-----2-|----2---Oh1---1-h-2-2----2------2-|---2---Oh1-----1h-|
 |----------------|----------------|-----------------|------------------|
 |----------------|----------------|-----------------|-----0------------|
 |-0---0---3--3---|-1---1--0---0---|-0---0---3---0---|-1-------0---0----|

 |-----0---------|-----------0-----|-----------0-----|------------0-----||
 |--------0------|-0h1-0-----------|-----0h1-0-------|-1----------------||
 |-2-2---------2-|----2--Oh1-----1-h-2-2----2------2-|---2---Oh1--------||
 |---------------|-----------------|-----------------|------------------||
 |-0-------------|-----------------|-0---------------|-----0------------||
 |-----0--3--3---|-1---1---0---0---|-----0---3---0---|-1-------0--------||

Outro
 ||-0----0------|-----------0^-|-0^-0^-4^---||
 ||-3/5----3--1-|------1----0^-|-0^-0^-2^---||
 ||-------------|------2----2^-|-2^-2^-2^---||
 ||-------------|-----------2^-|-2^-2^-2^---||
 ||-------------|-0--0---0--0^-|-0^-0^-0^---||
 ||-------------|------------- |------------||
            
Hard to play? Try these video lessons and learn fast. | Correct




comments powered by Disqus
↑ Back to top | Tablatures and chords are parodies/interpretations of the original songs. You may use it for private study, scholarship, research or language learning purposes only