>
 >
American Tune 1

American Tune 1 Guitar Tabs

Simon And Garfunkel - American Tune 1 chords, tabs, tablatures, lyrics

Guitar lessons | Add/correct | Request | Top 50 tabs Artists:  A B C D E F G H I J K L M N O P Q R S T U V W X Y Z 0-9

American Tune 1 Guitar Tabs – Simon And Garfunkel

CD, Sheet music, Poster

Do you like American Tune 1? Share with your friends now
ChordsTabsTabs v2Ukulele
an american tune

Capo II
half note = 86
4/4

   C                   F       C          G       C          G
|--0-------0-------||--1---------------|------------------|------------------|
|--1-------1-------||--1-------1-------|--0-------1-------|--0-----------0---|
|--0-------0-------||.-2-------0-------|--0-------0-------|--0-------0-------|
|------------------||.-3-------2-------|------0-------0---|------0-----------|
|------3-------3---||----------3-------|----------3-------|------------------|
|------------------||------------------|--3---------------|--3---------------|
   ^   ^   ^   ^      ^   ^   ^   ^      ^   ^   ^   ^       ^   ^   ^   ^
(repeat above measure 4X)

   E      E/G#        Am                 E7                 Am 
|------------------|--0---------------|------------------|------------------|
|--0---------------|--5-----------5---|----------3-------|--------------1---|
|--1-------4-------|----------5-------|------4-----------|----------2-------|
|------------------|------------------|------------------|------2-----------|
|------------------|------0-----------|------------------|--0---------------|
|--0-------4-------|--5---------------|--0-----------0---|------------------|
   ^   ^   ^   ^      ^   ^   ^   ^      ^   ^   ^   ^      ^   ^   ^   ^


       C              F       C          G       C          G   Am  G/B G7
|--0---------------|--1---------------|------------------|--------------1---|
|------1---1-------|--1-------1-------|--0-------1-------|--0---1---3-------|
|----------0-------|--2---2---0-------|--0-------0-------|------------------|
|--------------2---|--3-----------2---|------0-------2---|------------------|
|----------3-------|----------3-------|----------3-------|------0---2-------|
|------------------|------------------|--3---------------|--3---------------|
   ^   ^   ^   ^      ^   ^   ^   ^      ^   ^   ^   ^      ^   ^   ^   ^


   C       G#dim7     Am                 E       E7         Am
|------------------|--------------0---|------------------|----------0-------|
|--1-------3-------|--1-------1-------|--0-------3-------|--1---------------|
|--0-------1-------|--2---------------|--1---------------|------------------|
|------2-------3---|------2-----------|------2-------2---|------2-------2---|
|--3-------2-------|--0-------0-------|------------------|--0---------------|
|------------------|------------------|--0---------------|------------------|
   ^   ^   ^   ^      ^   ^   ^   ^      ^   ^   ^   ^      ^   ^   ^   ^


   C9                 F                  G                  F
|------------------|------------------|------------------|------------------|
|--3-----------0---|--1-----------1---|--0-----------0---|--1-----------1---|
|--3-------3-------|--2-------2-------|----------0-------|--2-------2-------|
|------2-----------|------3-----------|------0-----------|--3---3-----------|
|--3---------------|------------------|------------------|------------------|
|------------------|--1---------------|--3---------------|------------------|
   ^   ^   ^   ^      ^   ^   ^   ^      ^   ^   ^   ^      ^   ^   ^   ^


   C                  F       C          G     G#dim7       Am
|------------------|--1-------0-------|--3-------1-------|------------------|
|--1-----------1---|--1-------1-------|--0-------0-------|--------------1---|
|--0-------0-------|--2-------0-------|--0-------1-------|----------2-------|
|------2-----------|--3---------------|----------0-------|------2-----------|
|--3---------------|----------3-------|------------------|--0---------------|
|------------------|------------------|--3---------------|------------------|
   ^   ^   ^   ^      ^   ^   ^   ^      ^   ^   ^   ^      ^   ^   ^   ^

   A7                 D7                 G  Am  G/B  G7     C       G
|------0-----------|----------2-------|--------------1---|--0-------3-------|
|--2-------2-------|--1---------------|--0---1---3-------|--1-------0-------|
|--0-----------0---|--2---2-------2---|------------------|--0-------0-------|
|------------------|--0---------------|------------------|------------------|
|--0---------------|------------------|------0---2-------|--3---------------|
|------------------|------------------|--3---------------|----------3-------|
   ^   ^   ^   ^      ^   ^   ^   ^      ^   ^   ^   ^      ^   ^   ^   ^

   D                  G       C          F       C          G
|--2---------------|----------0-------|--1---------------|------------------|
|--3-----------3---|--0-------1-------|--1-------1-------|--0-----------0---|
|--2-------2-------|----------0-------|--2---2---0-------|----------0-------|
|--0---0-----------|------0-------2---|--3-----------2---|------0-----------|
|------------------|----------3-------|----------3-------|------------------|
|------------------|--3---------------|------------------|--3---------------|
   ^   ^   ^   ^      ^   ^   ^   ^      ^   ^   ^   ^      ^   ^   ^   ^


   E       E/G#       Am     Dm7         C                  G6      G
|------------------|----------5-------|------3-----------|------------------|
|------------------|----------6-------|--5-----------5---|--5-------3-------|
|--1---S---4----S--|--5-------5-------|--5-------5-------|--4-------4-------|
|------------------|----------0---0---|------------------|------------------|
|------------------|------------------|--3---------------|------------------|
|--0-------4-------|--5---------------|------------------|--3---3---3-------|
   ^   ^   ^   ^      ^   ^   ^   ^      ^   ^   ^   ^      ^   ^   ^   ^


                                       _____________________________________
                                      |1.
   C                                  |
|--0-------0-------|--0-------0-------|--0-------0-------|--0---------0-----||
|--1-------1-------|--1-------1-------|--1-------1-------|--1-------1-------||
|--0-------0-------|--0-------0-------|--0-------0-------|--0-----0--------.||
|------2-----------|------------------|------------------|--------------2--.||
|--3-----------3---|------3-------3---|------3-------3---|------3-----------||
|------------------|------------------|------------------|------------------||
   ^   ^   ^   ^      ^   ^   ^   ^      ^   ^   ^   ^      ^   ^   ^   ^



______________________________________
|2.
|  C
|--0-------0-------|--0-------0-------|--0-----------0---|------0-----------|
|--1-------1-------|--1-------1-------|--1-----------1---|------1---------1-|
|--0-------0-------|--0-------0-------|--0-------0---0---|------0-------0---|
|------------------|------------------|------------------|--2-------0h2-----|
|------3-------3---|------3-------3---|------3-------3---|------------------|
|------------------|------------------|------------------|------------------|
   ^   ^   ^   ^      ^   ^   ^   ^      ^   ^   ^   ^      ^   ^   ^   ^

       G/B Am         G                                     Am
|------------------|------------------|------------------|------------------|
|--1---3---1-------|--0-----------0---|----------0-------|--------------1---|
|--0---0---0-------|--0-------0-------|------0-------0---|----------2-------|
|--------------0---|------0-----------|------------------|------2-----------|
|--3---2---0-------|------------------|------------------|--0---------------|
|------------------|--3---------------|--3---------------|------------------|
   ^   ^   ^   ^      ^   ^   ^   ^      ^   ^   ^   ^      ^   ^   ^   ^


   Ebdim7             G7/D               F                2/4(C)
|--------------2---|--------------1---|------1-----------|----------|
|----------1-------|----------0-------|------1-----------|----------|
|------2-----------|------0-----------|------2-----------|------0---|
|--1---------------|--0---------------|--3-------2---0---|----------|
|------------------|------------------|------------------|--3-------|
|------------------|------------------|------------------|----------|
   ^   ^   ^   ^      ^   ^   ^   ^      ^   ^   ^   ^      ^   ^   

  4/4
   G          G6      G7        G        C
|------------------|------------------|--------------0---|------0-----------|
|--0---------0-----|------------0-----|--------------1---|------1---------1-|
|--------0-------0-|--------0-------0-|----------0---0---|------0-------0---|
|------0-------2---|------3-------0---|------2-----------|--2-------0h2-----|
|------------------|------------------|--3-----------3---|------------------|
|--3-------3-------|--3-------3-------|------------------|------------------|
   ^   ^   ^   ^      ^   ^   ^   ^      ^   ^   ^   ^      ^   ^   ^   ^


                         G/B  Am         G7
|------------------|------------------|----------1-------|------------------|
|----------1---1---|--1---3---1-------|--0-----------0---|----------0-------|
|------------------|--0---0---0-------|--0---------------|------0-------0---|
|------2-----------|--------------0---|------0-----------|------------------|
|--3---------------|--3---2---0-------|------------------|------------------|
|------------------|------------------|--3---------------|--3---------------|
   ^   ^   ^   ^      ^   ^   ^   ^      ^   ^   ^   ^      ^   ^   ^   ^


  Am                  Ebdim7             G7/D               F
|------------------|--------------2---|--------------1---|------1-----------|
|--------------1---|----------1-------|----------0-------|------1-----------|
|----------2-------|------2-----------|------0-----------|------2-----------|
|------2-----------|--1---------------|--0---------------|--3-------2---0---|
|--0---------------|------------------|------------------|------------------|
|------------------|------------------|------------------|------------------|
   ^   ^   ^   ^      ^   ^   ^   ^      ^   ^   ^   ^      ^   ^   ^   ^

  2/4
   C          G         G6       G7          G      C
|----------|------------------|------------------|--0-----------0---|
|----------|--0---------------|------------------|--1-----------1---|
|------0---|------------0---0-|------------------|--0-------0---0---|
|----------|------0-------2---|------3-------0---|------2-----------|
|--3-------|------------------|------------------|--3---------------|
|----------|--3-------3-------|--3-------3-------|------------------|
   ^   ^      ^   ^   ^   ^      ^   ^   ^   ^      ^   ^   ^   ^

                                                            F       C
|------0-----------|------------------|--0---------------|--1---------------|
|------1---------1-|--------------1---|------1-------1---|--1-------1-------|
|------0-------0---|----------0-------|----------0-------|--2---2---0-------|
|--2-------0h2-----|------2-----------|------------------|--3-----------2---|
|------------------|--3---------------|------------------|----------3-------|
|------------------|------------------|------------------|------------------|
   ^   ^   ^   ^      ^   ^   ^   ^      ^   ^   ^   ^      ^   ^   ^   ^

   G       C          G                  E7     E/G#        Am
|------------------|------------------|------------------|--0---------------|
|--0-------1-------|--0-----------0---|------------------|--5-----------5---|
|--0-------0-------|--0-------0-------|--1---S---4----S--|----------5-------|
|------0-------2---|------0-----------|------------------|------------------|
|----------3-------|------------------|------------------|------0-----------|
|--3---------------|--3---------------|--0-------4-------|--5---------------|
   ^   ^   ^   ^      ^   ^   ^   ^      ^   ^   ^   ^      ^   ^   ^   ^

   E7                 Am                     C              F       C
|------------------|------------------|--0---------------|--1---------------|
|----------3-------|--------------1---|------1---1-------|--1-------1-------|
|------4-----------|----------2-------|----------0-------|--2---2---0-------|
|------------------|------2-----------|--------------2---|--3-----------2---|
|------------------|--0---------------|----------3-------|----------3-------|
|--0-----------0---|------------------|------------------|------------------|
   ^   ^   ^   ^      ^   ^   ^   ^      ^   ^   ^   ^      ^   ^   ^   ^

   G       C          G  Am  G/B  G7     C     G#dim7       Am
|------------------|--------------1---|------------------|------------------|
|--0-------1-------|--0---1---3-------|--1-------3-------|--------------1---|
|--0-------0-------|------------------|--0-------1-------|----------2-------|
|------0-------2---|------------------|------2-------3---|------2-----------|
|----------3-------|------0---2-------|--3-------2-------|--0---------------|
|--3---------------|--3---------------|------------------|------------------|
   ^   ^   ^   ^      ^   ^   ^   ^      ^   ^   ^   ^      ^   ^   ^   ^

   E                  Am                 C9                 F
|------------------|------------------|------------------|------------------|
|--0-----------0---|----------1-------|--3-----------0---|--1-----------1---|
|--1-------1-------|------2-------2---|--3-------3-------|--2-------2-------|
|------2-----------|------------------|------2-----------|------3-----------|
|------------------|--0---------------|--3---------------|------------------|
|--0---------------|------------------|------------------|--1---------------|
   ^   ^   ^   ^      ^   ^   ^   ^      ^   ^   ^   ^      ^   ^   ^   ^

   G                  F           C                         F       C
|------------------|------------------|--------------0---|--1-------0-------|
|--0-----------0---|--1-----------1---|----------1-------|--1-------1-------|
|--0-------0-------|--2-----------0---|------0-----------|--2-------0-------|
|------0-----------|--3---2---0-------|--2---------------|--3---3-------2---|
|------------------|--------------3---|------------------|----------3-------|
|--3---------------|------------------|------------------|------------------|
   ^   ^   ^   ^      ^   ^   ^   ^      ^   ^   ^   ^      ^   ^   ^   ^

   G      G#dim7      Am                 A7                 D7
|--3-------1-------|--0---------------|------0-----------|------2-----0-----|
|--0-------0-------|--1-----------1---|--2-------2-------|--1-------1-------|
|--0-------1-------|--2-------2-------|--0-----------0---|--2---------------|
|------0---0-------|------2-----------|------------------|--0-----------0---|
|------------------|--0---------------|--0---------------|------------------|
|--3---------------|------------------|------------------|------------------|
   ^   ^   ^   ^      ^   ^   ^   ^      ^   ^   ^   ^      ^   ^   ^   ^

   G  Am  G/B  G7     C       G          D                  G       C
|--------------1---|--0-------3-------|--------------2---|----------0-------|
|--0---1---3-------|--1-------0-------|----------3-------|--0-------1-------|
|------------------|--0-------0-------|------2-----------|--0-------0-------|
|------------------|------------------|--0---------------|------0-----------|
|------0---2-------|--3---------------|------------------|----------3-------|
|--3---------------|----------3-------|------------------|--3---------------|
   ^   ^   ^   ^      ^   ^   ^   ^      ^   ^   ^   ^      ^   ^   ^   ^

   F       C          G                  E       E/G#       Am     Dm7
|--1---------------|------------------|------------------|----------5-------|
|--1-------1-------|--0-----------0---|------------------|----------6-------|
|--2---2---0-------|--0-------0-------|--1---S---4---S---|--5-------5-------|
|--3-----------2---|------0-----------|------------------|----------0---0---|
|----------3-------|------------------|------------------|------------------|
|------------------|--3---------------|--0-------4---S---|--5---------------|
   ^   ^   ^   ^      ^   ^   ^   ^      ^   ^   ^   ^      ^   ^   ^   ^

   C                  G                  C                  Dm/F        C
|--0---------------|------------------|--0---------------|------0---1---0---|
|--1-----------1---|--0-----------0---|--1-----------1---|--3-----------1---|
|--0-------0-------|----------0-------|--0-------0-------|--2---0---2---0---|
|------2-----------|------0-----------|------2-----------|--3---------------|
|--3---------------|------------------|--3---------------|--------------3---|
|------------------|--3---------------|------------------|------------------|
   ^   ^   ^   ^      ^   ^   ^   ^      ^   ^   ^   ^      ^   ^   ^   ^

                      G6  G              F       Em         C     Csus4
|------------------|--0---------------|------------------|------------------|
|------3---1-------|--0---3-----------|--1---------------|--1-------1-------|
|------------------|--0-----------0---|--2---2---0-------|----------0---0---|
|--2---------------|----------0-------|--3-------2---0---|------2---3---2---|
|------------------|------------------|------------------|--3---------------|
|------------------|--3---------------|------------------|------------------|
   ^   ^   ^   ^      ^   ^   ^   ^      ^   ^   ^   ^      ^   ^   ^   ^

   G           G7    C/G(hold)
|----------3---1---|--0--------|
|----------0-------|--1--------|
|--0-------0-------|--0--------|
|--0---------------|--2--------|
|------------------|--3--------|
|------3-----------|--3--------|
   ^   ^   ^   ^


verse 1:
Many's the time I've been mistaken,
and many times confused
Yes, and I've always felt forsaken,
and certainly misused.
Ah, but I'm all right, I'm all right.
I'm just weary to my bones.
Still you don't expect to be bright and bonvivant,
so far away from home,
so far away from home.

verse 2:
And I don't know a soul who's not been battered.
I don't have a friend who feels at ease.
I don't know a dream that's not been shattered,
or driven to it's knees.
Ah, but it's all right.  It's all right.
For we've lived so well so long.
Still, when I think of the road we're travelin' on,
I wonder what's gone wrong.  
I can't help but wonder what's gone wrong.

Part B

And I dreamed I was dying.
I dreamed that my soul rose unexpectedly,
and looking back down at me, smiled reassuringly.
And I dreamed I was flying, 
and high up above my eyes could clearly see
the Statue of Liberty sailing away to sea.
And I dreamed I was flying.
And we come on the ship they call the Mayflower.
We come on the ship that sailed the moon.  
We come in age's most uncertain hours,
and sing an American tune.
Oh, and it's all right, it's all right,
it's all right.
You can't be forever blessed.
Still tomorrow's gonna be another working day
and I'm tryin' to get some rest;
that's all - I'm trying to get some rest.





Comments


Popular Simon And Garfunkel tabs & chords
Bookends Theme Chords
Cecilia 2 Chords
I Am A Rock Chords
The Boxer 1 Chords
Bookends Tabs
Flowers Never Bend Tabs
For Emily 1 Tabs
Hazy Shade Of Winter Tabs
At The Zoo Ukulele
So Long Frank Lloyd Wright Ukulele


Song lyrics



↑ Back to top | Tablatures and chords are parodies/interpretations of the original songs. You may use it for private study, scholarship, research or language learning purposes only
© 2014 AZChords.com Contact us | Privacy policy | DMCA | Add/correct tabs | Request tabs | Top 50 tabs