» » »

Simon And Garfunkel, America Tabs (ver.2)

Artists:  A B C D E F G H I J K L M N O P Q R S T U V W X Y Z # 

America Tabs (ver.2)

Simon And Garfunkel Tabs
 Rating:
4/5 (4 votes)
America lessons Tabs too difficult? Try these video lessons and learn fast
1
                Tab for "America"
the 1991 Concert in Central Park.

NOTE:  You can also strum all of these chords, if you don't want to  

NOTE:  To do the F* part, form a normal F chord (bar form) and roll  
the grip down so that pinky or ring finger hits the third string at  
the third fret...it isn't really a hammer on, but I noted it as such.
Eventually it becomes easy...

CAPO 2 or 3.

  C       C/B     Am7     C/G    F        

|-----0-|-----0-|-------|-------|-------|-1-----|-------|-1-----|
|-------|-------|-----1-|-------|-------|---1---|-----1-|---1---|
|---0---|---0---|---0---|-----0-|-----2-|-----2-|----2--|-----2-|
|-------|-------|-------|---2---|---3---|-------|---3---|-------|
|-3-----|-2-----|-0-----|-------|-------|-------|--3----|-------|
|-------|-------|-------|-3-----|-1-----|-------|-1-----|-------|

etc
  C       Em      Am      C/G     F               F*
|-----0-|-----0-|-------|-------|-------|-1-----|--------|--------|
|-------|-------|-----1-|-------|-------|---1---|-1----1-|-1----1-|
|---0---|---0---|---2---|-----0-|-----2-|-----2-|-2h3--2-|-2h3--2-|
|-------|-------|-------|---2---|---3---|-------|-3----3-|-3----3-|
|-3-----|-2-----|-0-----|-------|-------|-------|-3--3---|-3--3---|
|-------|-------|-------|-3-----|-1-----|-------|--------|--------|


  C       Em      Am      C/G     F               F*
|-----0-|-----0-|-------|-------|-------|-1-----|--------|--------|
|-------|-------|-----1-|-------|-------|---1---|-1----1-|-1----1-|
|---0---|---0---|---2---|-----0-|-----2-|-----2-|-2h3--2-|-2h3--2-|
|-------|-------|-------|---2---|---3---|-------|-3----3-|-3----3-|
|-3-----|-2-----|-0-----|-------|-------|-------|-3--3---|-3--3---|
|-------|-------|-------|-3-----|-1-----|-------|--------|--------|
Let us be lovers marry   fortunes
            we'll    our        together

  C       Em      Am     

|-----0-|-----0-|-------|-0-----|-------|-0-----|
|-------|-------|-----1-|---1---|-----1-|---1---|
|---0---|---0---|---2---|-----2-|---2---|-----2-|
|-------|-------|-------|-------|-------|-------|
|-3-----|-2-----|-0-----|-------|-0-----|-------|
|-------|-------|-------|-------|-------|-------|
I've got real    here in  bag
     some estate      my

  Em              A7
|-------|-0-----|-------|-0-----|
|-----0-|---0---|-----2-|---2---|
|---0---|-----0-|---0---|-----0-|
|-------|-------|-------|-------|
|-2-----|-------|-0-----|-------|
|-------|-------|-------|-------|
    So we bought  cigarettes
          a pack of

  Em              A7
|-------|-0-----|-------|-0-----|
|-----0-|---0---|-----2-|---2---|
|---0---|-----0-|---0---|-----0-|
|-------|-------|-------|-------|
|-2-----|-------|-0-----|-------|
|-------|-------|-------|-------|
  Mrs. Wagner's   Pies

  Em  D       C       G
|---|-2-----|-0-----|-------|
|-0-|---3---|---1---|-----0-|
|-0-|-----2-|-------|---0---|
|---|-------|-----2-|-------|
|-2-|-0-----|-3-----|-------|
|---|-------|-------|-3-----|
 and  walked  off     to for A-
                       look

  C       Em      Am      C/G     F               F*
|-----0-|-----0-|-------|-------|-------|-1-----|--------|--------|
|-------|-------|-----1-|-------|-------|---1---|-1----1-|-1----1-|
|---0---|---0---|---2---|-----0-|-----2-|-----2-|-2h3--2-|-2h3--2-|
|-------|-------|-------|---2---|---3---|-------|-3----3-|-3----3-|
|-3-----|-2-----|-0-----|-------|-------|-------|-3--3---|-3--3---|
|-------|-------|-------|-3-----|-1-----|-------|--------|--------|
 -mer-   -ric-   -a


  C       Em      Am      C/G     F               F*
|-----0-|-----0-|-------|-------|-------|-1-----|--------|--------|
|-------|-------|-----1-|-------|-------|---1---|-1----1-|-1----1-|
|---0---|---0---|---2---|-----0-|-----2-|-----2-|-2h3--2-|-2h3--2-|
|-------|-------|-------|---2---|---3---|-------|-3----3-|-3----3-|
|-3-----|-2-----|-0-----|-------|-------|-------|-3--3---|-3--3---|
|-------|-------|-------|-3-----|-1-----|-------|--------|--------|
  Kathy I said    boarded Grey-   Pittsburg
            as we      a  -hound
                              in

  C       Em      Am     

|-----0-|-----0-|-------|-0-----|-------|-0-----|
|-------|-------|-----1-|---1---|-----1-|---1---|
|---0---|---0---|---2---|-----2-|---2---|-----2-|
|-------|-------|-------|-------|-------|-------|
|-3-----|-2-----|-0-----|-------|-0-----|-------|
|-------|-------|-------|-------|-------|-------|
 Michigan seems   dream to me now
          like a

 G      

|-------|-3-----|-------|-3-----|
|-----0-|---0---|-----0-|---0---|
|---0---|-----0-|---0---|-----0-|
|-------|-------|-------|-------|
|-------|-------|-------|-------|
|-3-----|-------|-3-----|-------|
 It took four     hitch-  Saginaw
      me   days   -hike
              to   from

  D
|-2-----|-0-----|-------|
|---3---|---1---|-----0-|
|-----2-|-------|---0---|
|-------|-----2-|-------|
|-0-----|-3-----|-2-----|
|-------|-------|-------|
 I've     come    to for A-
                   look

  Cmaj7           C
|-------|-0-----|-------|-0-----|
|-----0-|---0---|-----1-|---1---|
|---0---|-----0-|---0---|-----0-|
|-------|-------|-------|-------|
|-3-----|-------|-3-----|-------|
|-------|-------|-------|-------|
 -mer        -i- -ca

 Bbmaj7
|-------|-1-----|-------|-1-----|
|-----3-|---3---|-----3-|---3---|
|---2---|-----2-|---2---|-----2-|
|-------|-------|-------|-------|
|-1-----|-------|-1-----|-------|
|-------|-------|-------|-------|
       Laughing   bus
             on the
  C
|-------|-0-----|-------|-0-----|
|-----1-|---1---|-----1-|---1---|
|---0---|-----0-|---0---|-----0-|
|-------|-------|-------|-------|
|-3-----|-------|-3-----|-------|
|-------|-------|-------|-------|
  Playing games            with the
faces
  Bbmaj7
|-------|-1-----|-------|-1-----|
|-----3-|---3---|-----3-|---3---|
|---2---|-----2-|---2---|-----2-|
|-------|-------|-------|-------|
|-1-----|-------|-1-----|-------|
|-------|-------|-------|-------|
 She      man     Gaber-  suit
   said     in      -dine   was
      the    the              a

  C
|-------|-0-----|-------|-0-----|
|-----1-|---1---|-----1-|---1---|
|---0---|-----0-|---0---|-----0-|
|-------|-------|-------|-------|
|-3-----|-------|-3-----|-------|
|-------|-------|-------|-------|
  Spy

  F
|-------|-1-----|-1-----|-1-----|
|-----1-|---1---|---1---|---1---|
|---2---|-----2-|-----2-|-----2-|
|-------|-------|-------|-------|
|-3-----|-------|-------|-------|
|-------|-------|-------|-------|
  I said careful  bowtie  really
      be     his     is        a

  C       Em      Am      C/G     F        

|-----0-|-----0-|-------|-------|-------|-1-----|-------|-1-----|
|-------|-------|-----1-|-------|-------|---1---|-----1-|---1---|
|---0---|---0---|---2---|-----0-|-----2-|-----2-|----2--|-----2-|
|-------|-------|-------|---2---|---3---|-------|---3---|-------|
|-3-----|-2-----|-0-----|-------|-------|-------|--3----|-------|
|-------|-------|-------|-3-----|-1-----|-------|-1-----|-------|
  camera...

  C       Em      Am      C/G     F               F*
|-----0-|-----0-|-------|-------|-------|-1-----|--------|--------|
|-------|-------|-----1-|-------|-------|---1---|-1----1-|-1----1-|
|---0---|---0---|---2---|-----0-|-----2-|-----2-|-2h3--2-|-2h3--2-|
|-------|-------|-------|---2---|---3---|-------|-3----3-|-3----3-|
|-3-----|-2-----|-0-----|-------|-------|-------|-3--3---|-3--3---|
|-------|-------|-------|-3-----|-1-----|-------|--------|--------|
 Toss me  cigar-  I think one in  rain-
       a    -ette  there's    my   -coat

  C       Em      Am     

|-----0-|-----0-|-------|-0-----|-------|-0-----|
|-------|-------|-----1-|---1---|-----1-|---1---|
|---0---|---0---|---2---|-----2-|---2---|-----2-|
|-------|-------|-------|-------|-------|-------|
|-3-----|-2-----|-0-----|-------|-0-----|-------|
|-------|-------|-------|-------|-------|-------|
We smoked last    hour ago
     the    one   

              an

  Em              A7
|-------|-0-----|-------|-0-----|
|-----0-|---0---|-----2-|---2---|
|---0---|-----0-|---0---|-----0-|
|-------|-------|-------|-------|
|-2-----|-------|-0-----|-------|
|-------|-------|-------|-------|
    So I looked   scenery
          at the

  Em              A7
|-------|-0-----|-------|-0-----|
|-----0-|---0---|-----2-|---2---|
|---0---|-----0-|---0---|-----0-|
|-------|-------|-------|-------|
|-2-----|-------|-0-----|-------|
|-------|-------|-------|-------|
 She read a magazine

  Em  D       C       G
|---|-2-----|-0-----|-------|
|-0-|---3---|---1---|-----0-|
|-0-|-----2-|-------|---0---|
|---|-------|-----2-|-------|
|-2-|-0-----|-3-----|-------|
|---|-------|-------|-3-----|
 and  moon    rose    over an
 the                


  C       Em      Am      C/G     F               F*
|-----0-|-----0-|-------|-------|-------|-1-----|--------|--------|
|-------|-------|-----1-|-------|-------|---1---|-1----1-|-1----1-|
|---0---|---0---|---2---|-----0-|-----2-|-----2-|-2h3--2-|-2h3--2-|
|-------|-------|-------|---2---|---3---|-------|-3----3-|-3----3-|
|-3-----|-2-----|-0-----|-------|-------|-------|-3--3---|-3--3---|
|-------|-------|-------|-3-----|-1-----|-------|--------|--------|
  o-         pen  field

  C       Em      Am      C/G     F               F*
|-----0-|-----0-|-------|-------|-------|-1-----|--------|--------|
|-------|-------|-----1-|-------|-------|---1---|-1----1-|-1----1-|
|---0---|---0---|---2---|-----0-|-----2-|-----2-|-2h3--2-|-2h3--2-|
|-------|-------|-------|---2---|---3---|-------|-3----3-|-3----3-|
|-3-----|-2-----|-0-----|-------|-------|-------|-3--3---|-3--3---|
|-------|-------|-------|-3-----|-1-----|-------|--------|--------|
  Kathy  lost     said    knew    sleeping 

     I'm      I    though  she 

                       I    was

  C       Em      Am     

|-----0-|-----0-|-------|-0-----|-------|-0-----|
|-------|-------|-----1-|---1---|-----1-|---1---|
|---0---|---0---|---2---|-----2-|---2---|-----2-|
|-------|-------|-------|-------|-------|-------|
|-3-----|-2-----|-0-----|-------|-0-----|-------|
|-------|-------|-------|-------|-------|-------|
  I'm     and     and I don't know why
   empty  aching

 G      

|-------|-3-----|-------|-3-----|
|-----0-|---0---|-----0-|---0---|
|---0---|-----0-|---0---|-----0-|
|-------|-------|-------|-------|
|-------|-------|-------|-------|
|-3-----|-------|-3-----|-------|
  Count-  cars   New     Turnpike
     ing    on    Jersey    they've
     the     the

  D       G       D   
|-2-----|-------|-2-----|
|---3---|---0---|---3---|
|-----2-|-----0-|-----2-|
|-------|-------|-------|
|-0-----|-------|-0-----|
|-------|-3-----|-------|
 All      come    to for A-
                   look

  Cmaj7           C
|-------|-0-----|-------|-0-----|
|-----0-|---0---|-----1-|---1---|
|---0---|-----0-|---0---|-----0-|
|-------|-------|-------|-------|
|-3-----|-------|-3-----|-------|
|-------|-------|-------|-------|
 -mer        -i- -ca


  D      G       D
|-2-----|-------|-2-----|
|---3---|---0---|---3---|
|-----2-|-----0-|-----2-|
|-------|-------|-------|
|-0-----|-------|-0-----|
|-------|-3-----|-------|
 All      come    to for A-
                   look


  Cmaj7           C
|-------|-0-----|-------|-0-----|
|-----0-|---0---|-----1-|---1---|
|---0---|-----0-|---0---|-----0-|
|-------|-------|-------|-------|
|-3-----|-------|-3-----|-------|
|-------|-------|-------|-------|
 -mer        -i- -ca


  D      G       D
|-2-----|-------|-2-----|
|---3---|---0---|---3---|
|-----2-|-----0-|-----2-|
|-------|-------|-------|
|-0-----|-------|-0-----|
|-------|-3-----|-------|
 All      come    to for A-
                   look


  Cmaj7
|-------|-0-----|-------|-0-----|
|-----0-|---0---|-----0-|---0---|
|---0---|-----0-|---0---|-----0-|
|-------|-------|-------|-------|
|-3-----|-------|-3-----|-------|
|-------|-------|-------|-------|
 -mer        



  C
|-------|-0-----|-------|-0-----|
|-----1-|---1---|-----1-|---1---|
|---0---|-----0-|---0---|-----0-|
|-------|-------|-------|-------|
|-3-----|-------|-3-----|-------|
|-------|-------|-------|-------|
 -ica

  C       Em      Am      C/G     F   (Ritard)     

|-----0-|-----0-|-------|-------|-------|-1-----|-------|-1-----|
|-------|-------|-----1-|-------|-------|---1---|-----1-|---1---|
|---0---|---0---|---2---|-----0-|-----2-|-----2-|----2--|-----2-|
|-------|-------|-------|---2---|---3---|-------|---3---|-------|
|-3-----|-2-----|-0-----|-------|-------|-------|--3----|-------|
|-------|-------|-------|-3-----|-1-----|-------|-1-----|-------|
                  


  C/G
|-0-|
|-1-|
|-0-| End.
|-2-|
|-3-|
|-3-|
            
Submit corrections

comments powered by Disqus
↑ Back to top | Simon And Garfunkel Tabs for America. Lyrics for acoustic guitar and electric guitar. 1 Tablatures and chords are parodies/interpretations of the original songs. You may use it for private study, scholarship, research or language learning purposes only