>
 >
Replace You 4

Replace You 4 Guitar Tabs

Silverstein - Replace You 4 chords, tabs, tablatures, lyrics

Guitar lessons | Add/correct | Request | Top 50 tabs Artists:  A B C D E F G H I J K L M N O P Q R S T U V W X Y Z 0-9

Replace You 4 Guitar Tabs – Silverstein

CD, Sheet music, Poster

Do you like Replace You 4? Share with your friends now
ChordsChords v2Chords v3TabsTabs v2Tabs v3Tabs v4Tabs v5Ukulele

Tabs for the song: Replace You (Acoustic) by Silverstein
Please rate and let me know if you have any corrections. Thank you.

Contrary to popular belief, this is not in Standard. This is correct. Proof? 


**For my tab of the whole album, go here:


Tuning: Half-Step Down (D# G# C# F# A# D#)


**CAPO - 4th Fret**


Intro
Acoustic 1:
D#||--------0-------------------0---------|
A#||-----------7-------------------7------|
F#||--------------7-------------------7---|
C#||------5-------------------5-----------|
G#||----7-------------------7-------------|
D#||--0-------------------0---------------|


D#||--------0-------------------0---------|
A#||-----------3-------------------3------|
F#||------5-------5-----------5-------5---| x2
C#||----5-------------------5-------------|
G#||--3-------------------3---------------|
D#||--------------------------------------|


Acoustic 2:
D#||--3333---333---3333333--3333---333---3333333--3333---333---3333333--3333---333--3333---333--|
A#||--3333---333---3333333--3333---333---3333333--3333---333---3333333--3333---333--3333---333--|
F#||--0000---000---0000000--0000---000---0000000--0000---000---0000000--0000---000--0000---000--|
C#||--xxxx---xxx---xxxxxxx--xxxx---xxx---xxxxxxx--xxxx---xxx---xxxxxxx--xxxx---xxx--0000---000--|
G#||--2222---222---2222222--2222---222---2222222--3333---333---3333333--3333---333--xxxx---xxx--|
D#||--0000---000---0000000--0000---000---0000000------------------------------------3333---333--|



Verse
Acoustic 1:
D#||--33333333----3333333--33333333----3333333--|--33333333----3333333--33333333----2222222---|
A#||--33333333----3333333--33333333----3333333--|--33333333----3333333--33333333----3333333---|
F#||--00000000----0000000--00000000----0000000--|--00000000----0000000--00000000----2222222---| x2
C#||--xxxxxxxx----xxxxxxx--00000000----0000000--|--xxxxxxxx----xxxxxxx--00000000----0000000---|
G#||--22222222----3333333--xxxxxxxx----xxxxxxx--|--22222222----3333333--xxxxxxxx----0000000---|
D#||--00000000-------------33333333----2222222--|--00000000-------------33333333----0000000---|


Acoustic 2:
D#||-------------7------------------10-----7---7---7---10-7------------------------|
A#||-8---8---8-----8-------8---8-------------8---8---8----------7-7-7-8-7---7-(8)--|
F#||---9---9---9---------7---7---7----------------------------------------9--------| x2
C#||-------------------------------------------------------------------------------|
G#||-------------------------------------------------------------------------------|
D#||-------------------------------------------------------------------------------|



Pre-Chorus
Acoustic 1/2:
D#||-3~----------------333--3~----------------333--|
A#||-3~-------------333333--3~-------------333333--|
F#||-x~----------xxxxxxxxx--0~----------000000000--|
C#||-2~-------222222222222--x~-------xxxxxxxxxxxx--|
G#||-0~---0000000000000000--3~---3333333333333333--|
D#||-----------------------------------------------|



Chorus
Acoustic 1:
D#||--2--2--222-3--33--3333-3--3--3333--333--333--|--2--2--222-3--33--3333-3--3--3333-33333333--|
A#||--3--3--333-3--33--3333-3--3--3333--333--333--|--3--3--333-3--33--3333-3--3--3333-33333333--|
F#||--2--2--222-x--xx--xxxx-0--0--0000--000--000--|--2--2--222-x--xx--xxxx-0--0--0000-00000000--|
C#||--0--0--000-2--22--2222-x--x--xxxx--xxx--xxx--|--0--0--000-2--22--2222-x--x--xxxx-00000000--|
G#||--0--0--000-2--22--2222-3--3--3333--333--333--|--0--0--000-2--22--2222-3--3--3333-xxxxxxxx--|
D#||----------------------------------------------|-----------------------------------33332222--|


D#||--2--2--222-3--33--3333-3--3--3333--333--333--|--2--2--222-3--33--3333-3--3--3333-333-3-3333--|
A#||--3--3--333-3--33--3333-3--3--3333--333--333--|--3--3--333-3--33--3333-3--3--3333-333-3-3333--|
F#||--2--2--222-x--xx--xxxx-0--0--0000--000--000--|--2--2--222-x--xx--xxxx-0--0--0000-000-0-0000--|
C#||--0--0--000-2--22--2222-x--x--xxxx--xxx--xxx--|--0--0--000-2--22--2222-x--x--xxxx-000-0-0000--|
G#||--0--0--000-2--22--2222-3--3--3333--333--333--|--0--0--000-2--22--2222-3--3--3333-xxx-x-xxxx--|
D#||----------------------------------------------|-----------------------------------333-3-3333--|


Acoustic 2:
D#||-----------------------------------------------------|
A#||--------------0-----------0---5--5--555--------------|
F#||----------0-----00--0---0---0-----------7--77-5--55--| x2
C#||--7--7--7---7---------7------------------------------|
G#||-----------------------------------------------------|
D#||-----------------------------------------------------|



Verse
Acoustic 1:
D#||--33333333----3333333--33333333----3333333--|--33333333----3333333--33333333----2222222---|
A#||--33333333----3333333--33333333----3333333--|--33333333----3333333--33333333----3333333---|
F#||--00000000----0000000--00000000----0000000--|--00000000----0000000--00000000----2222222---| x2
C#||--xxxxxxxx----xxxxxxx--00000000----0000000--|--xxxxxxxx----xxxxxxx--00000000----0000000---|
G#||--22222222----3333333--xxxxxxxx----xxxxxxx--|--22222222----3333333--xxxxxxxx----0000000---|
D#||--00000000-------------33333333----2222222--|--00000000-------------33333333----0000000---|


Acoustic 2:
D#||-------------7------------------10-----7---7---7---10-7------------------------|
A#||-8---8---8-----8-------8---8-------------8---8---8----------7-7-7-8-7---7-(8)--|
F#||---9---9---9---------7---7---7----------------------------------------9--------| x2
C#||-------------------------------------------------------------------------------|
G#||-------------------------------------------------------------------------------|
D#||-------------------------------------------------------------------------------|



Pre-Chorus
Acoustic 1/2:
D#||-3~----------------333--3~----------------333--|
A#||-3~-------------333333--3~-------------333333--|
F#||-x~----------xxxxxxxxx--0~----------000000000--|
C#||-2~-------222222222222--x~-------xxxxxxxxxxxx--|
G#||-0~---0000000000000000--3~---3333333333333333--|
D#||-----------------------------------------------|



Chorus
Acoustic 1:
D#||--2--2--222-3--33--3333-3--3--3333--333--333--|--2--2--222-3--33--3333-3--3--3333-33333333--|
A#||--3--3--333-3--33--3333-3--3--3333--333--333--|--3--3--333-3--33--3333-3--3--3333-33333333--|
F#||--2--2--222-x--xx--xxxx-0--0--0000--000--000--|--2--2--222-x--xx--xxxx-0--0--0000-00000000--|
C#||--0--0--000-2--22--2222-x--x--xxxx--xxx--xxx--|--0--0--000-2--22--2222-x--x--xxxx-00000000--|
G#||--0--0--000-2--22--2222-3--3--3333--333--333--|--0--0--000-2--22--2222-3--3--3333-xxxxxxxx--|
D#||----------------------------------------------|-----------------------------------33332222--|


D#||--2--2--222-3--33--3333-3--3--3333--333--333--|--2--2--222-3--33--3333-3--3--3333-333-3-3333--|
A#||--3--3--333-3--33--3333-3--3--3333--333--333--|--3--3--333-3--33--3333-3--3--3333-333-3-3333--|
F#||--2--2--222-x--xx--xxxx-0--0--0000--000--000--|--2--2--222-x--xx--xxxx-0--0--0000-000-0-0000--|
C#||--0--0--000-2--22--2222-x--x--xxxx--xxx--xxx--|--0--0--000-2--22--2222-x--x--xxxx-000-0-0000--|
G#||--0--0--000-2--22--2222-3--3--3333--333--333--|--0--0--000-2--22--2222-3--3--3333-xxx-x-xxxx--|
D#||----------------------------------------------|-----------------------------------333-3-3333--|


Acoustic 2:
D#||-----------------------------------------------------|
A#||--------------0-----------0---5--5--555--------------|
F#||----------0-----00--0---0---0-----------7--77-5--55--| x2
C#||--7--7--7---7---------7------------------------------|
G#||-----------------------------------------------------|
D#||-----------------------------------------------------|



Interlude
Acoustic 1:
D#||--------0-------------------0---------|
A#||-----------7-------------------7------|
F#||--------------7-------------------7---|
C#||------5-------------------5-----------|
G#||----7-------------------7-------------|
D#||--0-------------------0---------------|


D#||--------0-------------------0---------|
A#||-----------3-------------------3------|
F#||------5-------5-----------5-------5---| x2
C#||----5-------------------5-------------|
G#||--3-------------------3---------------|
D#||--------------------------------------|


Acoustic 2:
D#||--333~----------333~----------3~----------3-------------33---|
A#||--333~----------333~----------3~----------3------------333---|
F#||--000~----------000~----------0~----------0----------00000---|
C#||--xxx~----------xxx~----------x~----------x--------xxxxxxx---|
G#||--222~----------222~----------3~----------3-----3333333333---|
D#||--000~----------000~-----------------------------------------|



Bridge
Acoustic 1/2:
D#||---------------------------------------------------------------------|
A#||---------------------------------------------------------------------|
F#||---------------------------------------------------------------------|
C#||---5-5-5-5-5-5-5-5-----------------2-2-2-2-2-2-2-2-2-2-2-2-2-2-2-2---|
G#||---5-5-5-5-5-5-5-5-2-2-2-2-2-2-2-2-3-3-3-3-3-3-3-3-3-3-3-3-3-3-3-3---|
D#||-------------------0-0-0-0-0-0-0-0-----------------------------------|
       . . . . . . . . . . . . . . . . . . . . . . . . . . . . . . . .


D#||------------------------------------333~-----33333333---|
A#||------------------------------------333~-----33333333---|
F#||------------------------------------000~-----00000000---|
C#||---5-5-5-5-5-5-5-5------------------xxx~-----00000000---|
G#||---5-5-5-5-5-5-5-5-2-2-2-2-2-2-2-2--333~-----xxxxxxxx---|
D#||-------------------0-0-0-0-0-0-0-0-----------33332222---|
       . . . . . . . . . . . . . . . .



Chorus
Acoustic 1:
D#||--2--2--222-3--33--3333-3--3--3333--333--333--|--2--2--222-3--33--3333-3--3--3333-3333-3333--|
A#||--3--3--333-3--33--3333-3--3--3333--333--333--|--3--3--333-3--33--3333-3--3--3333-3333-3333--|
F#||--2--2--222-x--xx--xxxx-0--0--0000--000--000--|--2--2--222-x--xx--xxxx-0--0--0000-0000-0000--|
C#||--0--0--000-2--22--2222-x--x--xxxx--xxx--xxx--|--0--0--000-2--22--2222-x--x--xxxx-0000-0000--|
G#||--0--0--000-2--22--2222-3--3--3333--333--333--|--0--0--000-2--22--2222-3--3--3333-3333-3333--|
D#||----------------------------------------------|----------------------------------------------|


D#||--2--2--222-3--33--3333-3--3--3333--333--333--|--2--2--222-3--33--3333-3--3--3333-33333333--|
A#||--3--3--333-3--33--3333-3--3--3333--333--333--|--3--3--333-3--33--3333-3--3--3333-33333333--|
F#||--2--2--222-x--xx--xxxx-0--0--0000--000--000--|--2--2--222-x--xx--xxxx-0--0--0000-00000000--|
C#||--0--0--000-2--22--2222-x--x--xxxx--xxx--xxx--|--0--0--000-2--22--2222-x--x--xxxx-00000000--|
G#||--0--0--000-2--22--2222-3--3--3333--333--333--|--0--0--000-2--22--2222-3--3--3333-xxxxxxxx--|
D#||----------------------------------------------|-----------------------------------33332222--|


D#||--2--2--222-3--33--3333-3--3--3333--333--333--|--2--2--222-3--33--3333-3333-3333-3333-3333--|
A#||--3--3--333-3--33--3333-3--3--3333--333--333--|--3--3--333-3--33--3333-3333-3333-3333-3333--|
F#||--2--2--222-x--xx--xxxx-0--0--0000--000--000--|--2--2--222-x--xx--xxxx-0000-0000-0000-0000--|
C#||--0--0--000-2--22--2222-x--x--xxxx--xxx--xxx--|--0--0--000-2--22--2222-xxxx-xxxx-0000-0000--|
G#||--0--0--000-2--22--2222-3--3--3333--333--333--|--0--0--000-2--22--2222-3333-3333-3333-3333--|
D#||----------------------------------------------|---------------------------------------------|



Acoustic 2:
D#||-----------------------------------------------------|
A#||--------------0-----------0---5--5--555--------------|
F#||----------0-----00--0---0---0-----------7--77-5--55--| (listen for when to come in)
C#||--7--7--7---7---------7------------------------------|
G#||-----------------------------------------------------|
D#||-----------------------------------------------------|


D#||--------------------------------------------------|
A#||--------------0-----------0---5-5-5-5-------------|
F#||----------0-----00--0---0---0---------7-7-7-7-7---|
C#||--7--7--7---7---------7---------------------------|
G#||--------------------------------------------------|
D#||--------------------------------------------------|



Outro
Acoustic 1:
D#||---2~-------3~-------0~---|
A#||---3~-------3~-------3~---|
F#||---2~-------x~-------0~---|
C#||---0~-------2~-------x~---|
G#||---0~-------2~-------3~---|
D#||--------------------------|





Tablature Legend
----------------
 h   - hammer-on
 p   - pull-off
 b   - bend
 r   - release bend
 *   - pinch harmonic
 '   - natural harmonic
 x   - mute note
 .   - palm mute
 /   - slide down
 \   - slide up





Comments


Popular Silverstein tabs & chords
The Tide Raises Every Ship Chords
American Dream 1 Tabs
Discovering The Water Front Tabs
In A Place Of Solace Tabs
Massachusetts Tabs
The End 3 Tabs
A Shipwreck In The Sand Ukulele
Arrivals Ukulele
Darling Harbour Ukulele
Massachusetts Ukulele


Song lyrics



↑ Back to top | Tablatures and chords are parodies/interpretations of the original songs. You may use it for private study, scholarship, research or language learning purposes only
© 2014 AZChords.com Contact us | Privacy policy | DMCA | Add/correct tabs | Request tabs | Top 50 tabs