» » »

Silverstein, My Heroine Tabs (ver.1)

Artists:  A B C D E F G H I J K L M N O P Q R S T U V W X Y Z # 

My Heroine Tabs (ver.1)

Silverstein Tabs
 Rating:
4/5 (4 votes)
My Heroine lessons Tabs too difficult? Try these video lessons and learn fast
                My Heroine by Silverstein

I haven't seen any accurate tabs of this song, so I thought I
would contribute. Question, comments, corrections are always
welcome.

Part 1: Intro/Verse

Guitar 1						Play x4
e |---------------------------------------------------------|
B |---------------------------------------------------------|
G |---4---0-------------0-------------0------0------0-------|
D |-----5----5-0----0-5----5-0----0-4----4------4------4----|
A |--------------3-------------5-----------5------5------5--|
E |-0-------------------------------------------------------|

Guitar 2 (Starts at "The drugs begin to peak...")
  Let ring						Play 2x
e |---------------------------------------------------------|
B |---------------------------------------------------------|
G |-9------------5-------------7----------------------------|
D |-9------------5-------------7----------------------------|
A |-7------------3-------------5----------------------------|
E |---------------------------------------------------------|

e |---------------------------------------------------------|
B |---------------------------------------------------------|
G |-5------------7-------------9-------------7--------------|
D |-5------------7-------------9-------------7--------------|
A |-3------------5-------------7-------------5--------------|
E |---------------------------------------------------------|
				PM
e |------------------------------------------------------------|
B |------------------------------------------------------------|
G |-5------------7-----------------------------7-7-7-7-7-7-7-7-|
D |-5------------7-------------2-2-2-2-2-2-2-2-7-7-7-7-7-7-7-7-|
A |-3------------5-------------2-2-2-2-2-2-2-2-5-5-5-5-5-5-5-5-|
E |----------------------------0-0-0-0-0-0-0-0-----------------|

Part 2: Pre-Chorus ("You won't try to save me...")

Both guitars
e |---------------------------------------------------------|
B |---------------------------------------------------------|
G |---------------5--5-5--5-5-5-7--7-7--7-7-7---------------|
D |-2--2-2--2-2-2-5--5-5--5-5-5-7--7-7--7-7-7-5-4-7-4-5-----|
A |-2--2-2--2-2-2-3--3-3--3-3-3-5--5-5--5-5-5-5-4-7-4-5-----|
E |-0--0-0--0-0-0-----------------------------3-2-5-2-3-----|

e |---------------------------------------------------------|
B |---------------------------------------------------------|
G |---------------5--5-5--5-5-5-7--7-7--7-7-7---------------|
D |-2--2-2--2-2-2-5--5-5--5-5-5-7--7-7--7-7-7-5-5-4-5-4-----|
A |-2--2-2--2-2-2-3--3-3--3-3-3-5--5-5--5-5-5-5-5-4-5-4-----|
E |-0--0-0--0-0-0-----------------------------3-3-2-3-2p0---|

Part 3: Chorus ("You taught my heart...")

Guitar 1	
(Strumming pattern not shown)				Play x3
e |---------------------------------------------------------|
B |---------------------------------------------------------|
G |-9------------11-----------12----------------------------|
D |---------------------------------------------------------|
A |-7------------9------------10----------------------------|
E |---------------------------------------------------------|
Keep strumming			PM
e |---------------------------------------------------------|
B |---------------------------------------------------------|
G |-9-------------------------7-7-7-7-7-7-7-7-7-7-7-7-7-7-7-|
D |---------------------------7-7-7-7-7-7-7-7-7-7-7-7-7-7-7-|
A |-7-------------------------5-5-5-5-5-5-5-5-5-5-5-5-5-5-5-|
E |---------------------------------------------------------|

Guitar 2						Play x3
e |---------------------------------------------------------|
B |---------------------------------------12-12-10-10-8-8-7-|
G |--------------------------------------(12)--(11)--(9)-(7)|
D |---------------------------------------------------------|
A |---------------------------------------------------------|
E |---------------------------------------------------------|

Part 4: Bridge ("I bet you laugh...")

Guitar 1
(Strumming pattern not shown)
e |---------------------------------------------------------|
B |---------------------------------------------------------|
G |---------------------------9----7----5-------------------|
D |-5------------9------------9----7----5------------5/7----|
A |-5------------9------------7----5----3------------5/7----|
E |-3------------7-----------------------------------3/5----|
					Let ring
e |---------------------------------------------------------|
B |---------------------------------------------------------|
G |--------------------------------7----5-------------------|
D |-5------------9------------2----7----5-------------------|
A |-5------------9------------2----5----3-------------------|
E |-3------------7------------0-----------------------------|

Guitar 2
e|-------------------------------------------------------------------------------------------|
B|-------------------------------------------------------------------------------------------|
G|-12-----------11-----------16--16-16-16/17--14--14-14-14/16--17--17-17-17--17-17-17--12/14-|
D|-----strum---------------------------------------------------------------------------------|
A|-10-----------9------------14--14-14-14/15--12--12-12-12/14--15--15-15-15--15-15-15--10/12-|
E|-------------------------------------------------------------------------------------------|

e |---------------------------------------------------------|
B |---------------------------------------------------------|
G |-12-----------11----------------7----5-------------------|
D |---------------------------2----7----5-------------------|
A |-10-----------9------------2----5----3-------------------|
E |---------------------------0-----------------------------|

Now that we have that out of the way, play in this order:
Intro/verse	(Part 1)
Pre-Chorus	(Part 2)
Chorus		(Part 3)
Pre-Chorus	(Part 2)
Chorus		(Part 3)
Bridge		(Part 4)
Intro/verse	(Part 1) 
Chorus		(Part 3)
Pre-Chorus	(Part 2)        

A couple of notes - The second intro is slightly different from the first. Listen and
you'll get it. The song ends halfway through the final Pre-Chorus. End on an E chord.
            
Submit corrections

comments powered by Disqus
↑ Back to top | Silverstein Tabs for My Heroine. Lyrics for acoustic guitar and electric guitar. Tablatures and chords are parodies/interpretations of the original songs. You may use it for private study, scholarship, research or language learning purposes only