» » »

Tomorrow Tabs (ver.1)

Artists:  A B C D E F G H I J K L M N O P Q R S T U V W X Y Z # 

Tomorrow Tabs (ver.1)

Silverchair
Rating:
0/5 (0 votes)

Hard to play? Try these video lessons and learn fast.
                "Tomorrow"
off their debut album "Frogstomp"

Intro
    A			G
e--------------------------3-------------------
B-----5--------5------------3------------------
G------6--------6------------------------------
D---7---7----7---7-------5---------------------
A----7--------7-----------5--------------------
E--5--------5-----------3----------------------

Verse
A-G-C-F

Solo (play 2X)
e---5-5-10-10-12-----------3-3-8-8-10----------
B---5-5-10-------10-12-10--3-3-8------8-10-8---
G----------------------------------------------
D----------------------------------------------
A----------------------------------------------
E----------------------------------------------

Other than that everything's pretty easy (except the bassline)
            
Hard to play? Try these video lessons and learn fast. | Correct




comments powered by Disqus
↑ Back to top | Tablatures and chords are parodies/interpretations of the original songs. You may use it for private study, scholarship, research or language learning purposes only