>
 >
Rebound 1

Rebound 1 Guitar Tabs

Silent Sanctuary - Rebound 1 chords, tabs, tablatures, lyrics

Guitar lessons | Add/correct | Request | Top 50 tabs Artists:  A B C D E F G H I J K L M N O P Q R S T U V W X Y Z 0-9

Rebound 1 Guitar Tabs – Silent Sanctuary

CD, Sheet music, Poster

Do you like Rebound 1? Share with your friends now
ChordsChords v2Chords v3TabsTabs v2Tabs v3Tabs v4Ukulele


	Ang lupet ng bandang ito...ASTIG!!! I-vote natin ang mga to sa mga hitcharts sa radio o TV hehe!

	Eto na yung complete guitar tab of Silent Sanctuary's Rebound! This is 95% correct
nyo lang po ung kanta en do da timing. PLUS, may bonus pa pong astig na astig na
tab. Sana po magustuhan nyo ang super kapa ko sa kantang ito. Kung meron pong complaints 
suggestion or anything, kontakin nyo lang ako sa email ad stated above. Patulong nga 
sa mga
sa guitar playing, gusto ko pa po kasi matuto hehe.
Idinededicate ko ang tab na ito sa 14 na babaeng sumira at gumulo sa buhay ko. Peace!


Gtr.Tuning:Standard(Normal)

Chords used:

A2	x02200
F#m2	x44200
B2	x24400
C#m2 	x46600
E	022100
D2	xx0320
Cm 	x35543

Guitar Legends:

h  - HAMMERDOWN
p  - PULL
/  - SLIDE
ST - SINGLE STRUM
~  - LET IT RING

Intro: A2 - F#m2

e|----------------------|
B|----------------------|
G|-1h2p1---4-2-1--------|
D|-------2-------4-2-2--| x3
A|----------------------|
E|----------------------|

e|----------------------------0~--0~--|
B|----------------------------0~--0~--|
G|-1h2p1---4-4/6-4-2-1h2p1----2~--2~--|
D|-------2--------------------2~--2~--|
A|----------------------------0~--2~--|
E|----------------------------x~--x~--|


Verse 1:

A2(ST)
O kay bilis namang
A2(ST)
Mag-sawa ng puso mo
F#m2
e|------------------------|
B|------------------------|
G|-1h2p1---4-2-1----------| (Play this with F#m2)
D|-------2-------4-2-2-4~-|
A|------------------------|
E|------------------------|

A2(ST)
Ganyan ka ba talaga
A2(ST)
Bigla na lang naglalaho
F#m2
e|------------------|
B|------------------|
G|-1h2p1---4-2-1----| (Play this with F#m2)
D|-------2-------4~-| (Extend last note up to pre-chorus)
A|------------------|
E|------------------|


Pre-Chorus 1:

     A2              B2
Para bang walang nangyari
   C#m2              D2
Di mo man lang sinabi


Chorus:

  A2
Sana'y
         E
Hindi na lang
        F#m2
Pinilit pa
            D2
Wala ring patutunguhan
A2
Kahit
        E  F#m2 - D2
Sabi mo pang mahal kita

        A2
Nalulungkot
      E
Nayayamot
        F#m2
Nagmumukmok
            D2        A2
Hindi ko pa yata kaya pang
        E            F#m2 - D2
Labanan ang damdamin ko


Syllabication Tab:(included in the chorus,just listen well)

e|-5-7--4-4-5-7--4-4-5-7--4-4-5-7-12-11-7-7h9-7--4-4-5-7--4-4-5-0~--|      ------- \
B|------------------------------------------------------------------|        ----- \
G|------------------------------------------------------------------|          --- \
D|------------------------------------------------------------------|         ---- \
A|------------------------------------------------------------------|          --- \
E|------------------------------------------------------------------|           -- \
                                           					  \  X2
e|-4-4-5-7--4-4-5-7--4-4-5-7--4-4-5-7-12-11-7-7h9-7--4-4-5-7--4-4-5-0~------------ \  /
B|-------------------------------------------------------------------------------- \  /
G|-------------------------------------------------------------------------------- \  /
D|-------------------------------------------------------------------------------- \  /
A|-------------------------------------------------------------------------------- \  /
E|-------------------------------------------------------------------------------- \  /


Verse 2:

A2(ST)
Nakakainis talaga
A2(ST)
Nagmukha tuloy akong tanga
F#m2
e|------------------------|
B|------------------------|
G|-1h2p1---4-2-1----------| (Play this with F#m2)
D|-------2-------4-2-2-4~-|
A|------------------------|
E|------------------------|

A2(ST)
Pinaasa mo kasi
A2(ST)
Puso ko ngayon tuloy lumuluha
F#m2
e|------------------|
B|------------------|
G|-1h2p1---4-2-1----| (Play this with F#m2)
D|-------2-------4~-| (Extend last note up to pre-chorus)
A|------------------|
E|------------------|


Pre-Chorus 2:

      A2             B2
Dahil iniwan mo kong mag-isa
       C#m2         D2
Limang araw lang ay babay na...


Repeat Chorus


Bridge:

e|--------------------------------------------------------------------------------|
B|--------------------------------------------------------------------------------|
G|----------------------------------------------7-7-7-7-7-7-7-7--7/10-10-7-7-9-9--|
D|-4-4-4-4-6-7~---4-4-4-4-6-2~---4-4-4-4-6-7~---7-7-7-7-7-7-7-7--7/10-10-7-7-9-9--|
A|-4-4-4-4-6-7~---4-4-4-4-6-2~---4-4-4-4-6-7~---5-5-5-5-5-5-5-5--5/8--8--5-5-7-7--|
E|-2-2-2-2-4-5~---2-2-2-2-4-0~---2-2-2-2-4-5~-------------------------------------|
								Rebound mo lang pala ako...

Repeat Intro


Chorus without Guitar(only Drums, Violin, Bass covers this part):

Sana'y
Hindi na lang
Pinilit pa
Wala ring patutunguhan
Kahit
Sabi mo pang mahal kita(BREAK)

        A2
Nalulungkot
      E
Nayayamot
        F#m2
Nagmumukmok
            D2        A2
Hindi ko pa yata kaya pang
        E            F#m2 - D2
Labanan ang damdamin ko


Repeat Chorus


Play chorus chords until end...





Comments


Popular Silent Sanctuary tabs & chords
Hay Naku 1 Chords
Masanay Ka Muna Chords
Wala Na Chords
14 Tabs
Ikaw Lamang 3 Tabs
Rebound 2 Tabs
Summer Song 2 Tabs
Summer Song Intro Tabs
Buhay Na To Ukulele
Ingat Ka Ukulele


Song lyrics



↑ Back to top | Tablatures and chords are parodies/interpretations of the original songs. You may use it for private study, scholarship, research or language learning purposes only
© 2014 AZChords.com Contact us | Privacy policy | DMCA | Add/correct tabs | Request tabs | Top 50 tabs