» » »

Silent Sanctuary, Pink Tabs (ver.1)

Artists:  A B C D E F G H I J K L M N O P Q R S T U V W X Y Z # 

Pink Tabs (ver.1)

Silent Sanctuary Tabs
Rating:
0/5 (0 votes)
Hard to play? Try these video lessons and learn fast.
                "(5)
tuning: EADGBE(standard)

there it goes..........

intro:

e|------------------------------------------------------------|
B|------------------------------------------------------------|
G|-5-7-7-5-7-7-5-7-5-5-7-7-5-7-7-5-7-7-5-7--------------------|
D|-5-7-7-5-7-7-5-7-5-5-7-7-5-7-7-5-7-7-5-7---(pause)----------|
A|-3-5-5-3-5-5-3-5-3-3-5-5-3-5-5-3-5-5-5-7--------------------|
E|------------------------------------------------------------|

then...(2 times tong part na to)

e|-------|
B|-------|
G|-7-5-5-| = 4 times
D|-7-5-5-|
A|-5-3-3-|
E|-------|

e|-------------------|
B|-------------------|
G|-------------------|
D|-3-5----3-5--------|
A|-3-5----3-5--------|
E|-1-3----1-3--------|

verse:
nakita.....
e|-------|
B|-------|
G|-7-5-5-| = 4 times
D|-7-5-5-|
A|-5-3-3-|
E|-------|
pinf five....
e|-------------------|
B|-------------------|
G|-------------------|
D|-3-5----3-5--------|
A|-3-5----3-5--------|
E|-1-3----1-3--------|

nakainuman...
e|-------|
B|-------|
G|-7-5-5-| = 4 times
D|-7-5-5-|
A|-5-3-3-|
E|-------|
pink five...
e|-------------------|
B|-------------------|
G|-------------------|
D|-3-5----3-5--------|
A|-3-5----3-5--------|
E|-1-3----1-3--------|

chorus:
red 1....
e|-----------------|
B|-----------------|
G|-5-5-4-4-3-3-2-2-|
D|-5-5-4-4-3-3-2-2-|
A|-3-3-2-2-1-1-0-0-|
E|-----------------|

pink five...
e|-------------------|
B|-------------------|
G|-------------------|
D|-3-5----3-5--------|
A|-3-5----3-5--------|
E|-1-3----1-3--------|

ung verse 2 pareho din ng verse 1
2 times then tas chorus the proceed to verse 3(ganun din)
then...

pink five...
e|-------------------|
B|-------------------|
G|-------------------|
D|-3-5----3-5--------|
A|-3-5----3-5--------|
E|-1-3----1-3--------|

then...

e|-----------------------------|
B|-----------------------------|
G|-------------1-1-2-2-4-4-6-6-|
D|-7-7-6-6-4-4-2-2-3-3-5-5-7-7-|  2 times
A|-7-7-6-6-4-4-2-2-3-3-5-5-7-7-|
E|-5-5-4-4-2-2-0-0-1-1-3-3-5-5-|

then again....

e|-------------|
B|-3-3-5-5-4-4-|
G|-5-5-6-6-7-7-|
D|-5-5-6-6-7-7-|  3 times
A|-2-2-4-4-5-5-|
E|-------------|
habaan nyu ung huling chords(D power chords un)

then again and again and again.......
   F E E
e|---------|
B|---------|
G|-2-1-1---|
D|-3-2-2---|
A|-3-2-2---| (bahala na kau sa strumming)
E|-1-0-0---|

sa wakas last part...

e|-----------------------------|
B|-----------------------------|
G|-------------1-1-2-2-4-4-6-6-|
D|-7-7-6-6-4-4-2-2-3-3-5-5-7-7-|
A|-7-7-6-6-4-4-2-2-3-3-5-5-7-7-| 2 times
E|-5-5-4-4-2-2-0-0-1-1-3-3-5-5-|

e|-------------|
B|-3-3-5-5-4-4-|
G|-5-5-6-6-7-7-|
D|-5-5-6-6-7-7-|  3 times
A|-2-2-4-4-5-5-|

   F E E
e|---------|
B|---------|
G|-2-1-1---|
D|-3-2-2---|
A|-3-2-2---| (bahala na kau sa strumming)
E|-1-0-0---|

eto pala last part sori...
e|-------|
B|-------|
G|-7-5-5-| = 4 times
D|-7-5-5-|
A|-5-3-3-|
E|-------|

e|------|
B|------|
G|------|
D|-3-7--|
A|-3-7--|
E|-1-5--|

aus ba????

d ko xur ung last part
pero ung umpisa xur 90 %
hehehehehehehehehehehe

hi mga taga IV-Becquerel hehehehehe
ampogi nyo!!
"            

comments powered by Disqus
↑ Back to top | Silent Sanctuary Tabs for Pink. Lyrics for acoustic guitar and electric guitar. Tablatures and chords are parodies/interpretations of the original songs. You may use it for private study, scholarship, research or language learning purposes only