» » »

Silent Sanctuary, Kundiman Tabs (ver.4)

Artists:  A B C D E F G H I J K L M N O P Q R S T U V W X Y Z # 

Kundiman Tabs (ver.4)

Silent Sanctuary Tabs
 Rating:
3.5/5 (8 votes)
Kundiman lessons Tabs too difficult? Try these video lessons and learn fast
1
                Band: Silent Sanctuary
“hahahaha, e2 na.. ala akong makitang matinong intro.. kaya gumawa ako ng sarili ko.. at 
n talga ang pinakatama!! sa pagkakarinig ko!!
mas madali kung sasabayan niu ung tugtog!! enjoy! ^_^”

INTRO
e|--------------------------------------------------|
b|---------------------------------------7----------|
g|-----4----4------6-4—6/8------8-----8-------------|
d|---2--2---------------------9-----9---------------|
a|-4---------4/6------------7-----7-----------------|
e|--------------------------------------------------|

e|-----------------------------------------7---------|
b|-----------------------------------------7---------|
g|-----4----4------6-4—6/8------8----------8---------|
d|---2--2---------------------9---9--------9---------|
a|-4---------4/6------------7------------------------|
e|---------------------------------------------------|

verse 1
                C#m      D#m            E
e|---------4-4-4--6-6-6-6-----7-7-7-7--------------------|
b|---------5-5-5--7-7-7-7-----7-7-7-7--------------------|
g|---------6-6-6--8-8-8-8-----9-9-9-9--------------------|
d|---------6-6-6--8-8-8-8-----9-9-9-9--------------------|
a|---------4-4-4--6-6-6-6-----7-7-7-7--------------------|
e|---------4-4-4--6-6-6-6-----7-7-7-7--------------------|
   para       kang               asukal . . . .            repeat 8x

sintamis mong magmahal
para kang pintura
buhay koy ikaw ang nagpinta
para kang unan
pinapainit mo ang aking tiyan
para kang kumot
na yumayakap sa tuwing
ako'y nalulungkot

Refrain: ( puro pababa ang strum ^_^ )
   C#m         D#m
Kaya't wag magtataka
     E             F#
kung bakit ayaw kitang mawala

Chorus:

        E   F# G#m
Kung hindi man tayo hanggang dulo
wag mong kalimutan
nandito lang ako
laging umaalalay
di ako lalayo...
           E          F#
dahil ang tanging pan*langin

ko ay ikaw (Intro chords 4x)

verse 2 ( same as verse 1 )
di baleng maghapon na umulan
basta't ikaw ang sasandalan
liwanag ng lumulubog na araw
kay sarap pagmasdan
lalo na kapag nasisinagan ang
iyong mukha
ayoko nang magsawa
hinding hindi magsasawa sa'yo

(Repeat Refrain)
(Repeat Chorus)

Bridge:

 D#m    E
Bahala na
  D#m   G#         C#m
ayoko munang magsalita
     A          G#m
hayaan na muna natin ang
         G  F#
daloy ng tadhana

(Instrumental)
D#m-F#-D#m-C#m-D#m-C#m-B
D#m-F#-D#m-D#m-F#
D#m-F#-D#m-C#m-D#m-C#m-B
D#m-F#-D#m-B-C#m-F#


(Repeat Chorus)

Outro: C#m - D#m - E (4x)
            
Submit corrections

comments powered by Disqus
↑ Back to top | Silent Sanctuary Tabs for Kundiman. Lyrics for acoustic guitar and electric guitar. 1 Tablatures and chords are parodies/interpretations of the original songs. You may use it for private study, scholarship, research or language learning purposes only