>
 >
Hay Naku

Hay Naku Guitar Tabs

Silent Sanctuary - Hay Naku chords, tabs, tablatures, lyrics

Guitar lessons | Add/correct | Request | Top 50 tabs Artists:  A B C D E F G H I J K L M N O P Q R S T U V W X Y Z 0-9

Hay Naku Guitar Tabs – Silent Sanctuary

CD, Sheet music, Poster

Do you like Hay Naku? Share with your friends now
ChordsChords v2Chords v3TabsUkulele

Tuning: Standard

Intro:
e--0-----0-------0-----0--0-0-|
B--0-0-0-0-0-0-0-0-0-0-0--1-3-|
G--2-2-2-2-2-2-2-2-2-2-2--2-4-| 2x
D--2-2-2-2-2-2-2-2-2-2-2--2-5-|
A--0-0-0-0-0-0-0-0-0-0-0--3-5-|
E----0-3---0-3-----0-3----1-3-|

e-----0--1--0--|
B--0--0--1--0--|
G--7--9--2--1--|
D--7--9--3--2--|
A--5--7--3--2--|
E--------1--0--|


Verse:
e----0---------0------------0---------------0--|
B----2---------2------------1---------------0--|
G----2---------2--2x--------2---------------1--|
D----2---------0------------3---------------2--|
A----0----------------------3---------------2--|
E---------------------------1---------------0--|
  Ganyan na naman...  Paiyakin ang damdamin ko
  Alam mo naman...       Akong nasasaktan
e----------0------------0----|
B----------3------------6----|
G----------4------------7----|
D----------4------------7----|
A----------2------------5----|
E----------------------------|
  Nagtatampo na tuloy ako sa ‘yo
 ‘Di ko maisip na ika’y iwanan


Refrain:
e--2--------1----------|
B--2--------1----------|
G--2--------2----------|
D--4--------3----------|
A--4--------3----------|
E--2--------1----------|
  May itatanong ako sayo
e--0-------------2--|
B--2-------------2--|
G--2-------------2--|
D--2-------------1--|
A--2----------------|
E--0----------------|
 Sabihin ang totoo
e----------0---------0--|
B----------3---------0--|
G----------2---------1--|
D----------0---------2--|
A--------------------2--|
E--------------------0--|
 Mahal mo ba talaga ako


Chorus:
e--0----0----0----0----|
B--5----0----3----0----|
G--6----2----4----1----|
D--6----4----4----2----|
A--4----4----2----2----|
E-------2---------0----|
  Hay naku...
  Napakagulo...
  Hay naku...
  Umiibig sa ‘yo...

e--5---------------|
B----3h5p3-2-------|
G------------2-4-2-|
D------------------|
A------------------|
E------------------|


Verse:
e----0---------0------------0---------------0--|
B----2---------2------------1---------------0--|
G----2---------2--2x--------2---------------1--|
D----2---------0------------3---------------2--|
A----0----------------------3---------------2--|
E---------------------------1---------------0--|
   Wala    naman...      Kundi       intindihin
  Kaya’t ‘wag mo na...  Magalit  na       ako
e----------0------------0----|
B----------3------------6----|
G----------4------------7----|
D----------4------------7----|
A----------2------------5----|
E----------------------------|
 Ang mga pangako mong palpak pa rin
Konti na lang malapit ka nang bumingo


Refrain:
e--2--------1----------|
B--2--------1----------|
G--2--------2----------|
D--4--------3----------|
A--4--------3----------|
E--2--------1----------|
  Mag-isip-isip ka na ngayon
e--0-------------2--|
B--2-------------2--|
G--2-------------2--|
D--2-------------1--|
A--2----------------|
E--0----------------|
  Nais mo talaga
e----------0-------------0--|
B----------3-------------0--|
G----------2-------------1--|
D----------0-------------2--|
A------------------------2--|
E------------------------0--|
     Magtagal sa piling mo

Chorus:
e--0----0----0----0----|
B--5----0----3----0----|
G--6----2----4----1----|
D--6----4----4----2----|
A--4----4----2----2----|
E-------2---------0----|
  Hay naku...
  Napakagulo...
  Hay naku...
  Umiibig sa ‘yo...


Bridge:
e---------------0-0-|
B--0-0---0------1-3-|
G--1/4---1------2-4-| 3x
D--2/5---2------3-5-|
A--2/5---2------3-5-|
E--0h3---0------1-3-|

e-----0--1--0--|
B--0--0--1--0--|
G--7--9--2--1--|
D--7--9--3--2--|
A--5--7--3--2--|
E--------1--0--|


Refrain:
e-------------------------|
B-------------------------|
G-------------------------|
D-------------------------|
A-------4-3----3-2----2-1-|
E--2--2------1------0-----|
 May itatanong ako...
e-----------0------0------0------0-0-0-0----|
B-----------0------5------3------5-3-5-3----|
G-----------7------6------4------6-4-6-4----| 2x
D-----------7------6------4------6-4-6-4----|
A-----------5------4------2------4-2-4-2----|
E-------------------------------------------|
  Mahal mo ba talaga ako
e-----------0------0------0------|
B-----------0------5------3------|
G-----------7------6------4------|
A-----------5------4------2------|
D-----------7------6------4------|
E--------------------------------|
  Mahal mo ba talaga ako


Chorus:
e--0----0----0----0----|
B--5----0----3----0----|
G--6----2----4----1----|
D--6----4----4----2----|
A--4----4----2----2----|
E-------2---------0----|
  Hay naku...
  Napakagulo...
  Hay naku...
  e--0----------1----0----------2-----|
B--5----------2----0----------2-------|
G--6----------1----2----------2-------|
D--6----------3----4----------1-------|
A--4----------3----4------------------|
E-------------1----2------------------|
  Umiibig sa ‘yo Umiibig sa ‘yo
 e-------0----0-----|
B-------3----0------|
G-------4----1------|
D-------4----2------|
A-------2----2------|
E------------0------|
 Hay naku   Hay...


Repeat Intro

e--0--
B--2--
G--2--
D--2--
A--0--
E-----
-end-

Hello ulit kay Angel!!! Kay Joy, Nathaan, Ruben, Janine at Nemo





Comments


Popular Silent Sanctuary tabs & chords
Abot Langit 2 Chords
Bumalik Ka Na Sakin 1 Chords
For Tonight 2 Chords
Ikaw Lamang 2 Chords
Maalala Mo Sana 1 Chords
Parol 1 Chords
Sandali Lang Chords
Tuyo Na'ng Damdamin Chords
Kismet 3 Tabs
Summer Song 4 Tabs


Song lyrics



↑ Back to top | Tablatures and chords are parodies/interpretations of the original songs. You may use it for private study, scholarship, research or language learning purposes only
© 2014 AZChords.com Contact us | Privacy policy | DMCA | Add/correct tabs | Request tabs | Top 50 tabs