>
 >
Dekada 90

Dekada 90 Guitar Tabs

Silent Sanctuary - Dekada 90 chords, tabs, tablatures, lyrics

Guitar lessons | Add/correct | Request | Top 50 tabs Artists:  A B C D E F G H I J K L M N O P Q R S T U V W X Y Z 0-9

Dekada 90 Guitar Tabs – Silent Sanctuary

CD, Sheet music, Poster

Do you like Dekada 90? Share with your friends now
Tabs
Title      :    Dekada 90
Artist     :    Silent Sanctuary
Album      :    Mistaken for Granted
                Wesleyan University-Philippines
                Cabanatuan City
Tuning     :    Standard

chords used:
A      : 577655
A9     : x022x0
G      : 355433
C#m    : x46654
Bm     : x24432
Bm7    : x24232
E      : 022100
E7     : 020100
F#m    : 244222
F#m7   : 242222
D      : xx023x


Verse 1:    
              A              C#m            Bm                E
  |-----------x--------------x--------------x-(2)-------------x----|\
  |-----------x--------------5--------------3---(3)-----------x----| \
  |-----------6------------6-6------------4-4---------------1-1----| |RIFF A
  |---------7-7----------6---6----------4---4-------------2---2----| |
  |-------7---7--------4-----4--------2-----2-----------2-----2----| /
  |-----5-----5---------------------------------------0-------0----|/
 kung wala     na     akong   mapunta-han


              A              C#m            Bm              C#m
  |-----------x--------------x--------------x-(2)-----------x-(4)--|\
  |-----------x--------------5--------------3---(3)---------5---(5)| \
  |-----------6------------6-6------------4-4-------------6-6------| | RIFF B
  |---------7-7----------6---6----------4---4-----------6---6------| |
  |-------7---7--------4-----4--------2-----2--------/4-----4------| /
  |-----5-----5----------------------------------------------------|/
  pwede ba...     kit--ang mapasya -  lan


              A              C#m            Bm                E
  |-----------x--------------x--------------x-(2)-------------x----|
  |-----------x--------------5--------------3---(3)-----------x----|
  |-----------6------------6-6------------4-4---------------1-1----|
  |---------7-7----------6---6----------4---4-------------2---2----|
  |-------7---7--------4-----4--------2-----2-----------2-----2----|
  |-----5-----5---------------------------------------0-------0----|
 kung mapagod    na   ako sa kaka-    i......         sip


              A              C#m            Bm              C#m
  |-----------x--------------x--------------x-(2)-----------x-(4)--|
  |-----------x--------------5--------------3---(3)---------5---(5)|
  |-----------6------------6-6------------4-4-------------6-6------|
  |---------7-7----------6---6----------4---4-----------6---6------|
  |-------7---7--------4-----4--------2-----2--------/4-----4------|
  |-----5-----5----------------------------------------------------|
    sasamahan    mo    ba akong mana--gi.....         nip


Refrain 1:
        F#m       Bm7
wag ka munang umuwi
          F#m       Bm7   E-pause
hangat di pa ako ngumingiti


Verse 2:  
              A              C#m            Bm                E
  |-----------x--------------x--------------x-(2)-------------x----|\
  |-----------x--------------5--------------3---(3)-----------x----| \
  |-----------6------------6-6------------4-4---------------1-1----| |RIFF A
  |---------7-7----------6---6----------4---4-------------2---2----| |
  |-------7---7--------4-----4--------2-----2-----------2-----2----| /
  |-----5-----5---------------------------------------0-------0----|/
    kakapagod  din pa- la, mamrob  -  le.....         ma


              A              C#m            Bm              C#m
  |-----------x--------------x--------------x-(2)-----------x-(4)--|\
  |-----------x--------------5--------------3---(3)---------5---(5)| \
  |-----------6------------6-6------------4-4-------------6-6------| | RIFF B
  |---------7-7----------6---6----------4---4-----------6---6------| |
  |-------7---7--------4-----4--------2-----2--------/4-----4------| /
  |-----5-----5----------------------------------------------------|/
    kalayaan     ko    ay di na     maki...... -      ta


              A              C#m            Bm                E
  |-----------x--------------x--------------x-(2)-------------x----|
  |-----------x--------------5--------------3---(3)-----------x----| 
  |-----------6------------6-6------------4-4---------------1-1----| 
  |---------7-7----------6---6----------4---4-------------2---2----| 
  |-------7---7--------4-----4--------2-----2-----------2-----2----| 
  |-----5-----5---------------------------------------0-------0----|
   nais kong tumakas  at ayokong     ma....sun  -    dan


              A              C#m            Bm              C#m
  |-----------x--------------x--------------x-(2)-----------x-(4)--|
  |-----------x--------------5--------------3---(3)---------5---(5)| 
  |-----------6------------6-6------------4-4-------------6-6------| 
  |---------7-7----------6---6----------4---4-----------6---6------| 
  |-------7---7--------4-----4--------2-----2--------/4-----4------| 
  |-----5-----5----------------------------------------------------|
    makinig ka muna    kahit di mainintin.............dihan


Refrain 2:
    F#m         Bm7
kwentuhan muna tayo
  F#m             Bm7  E-pause
anong balita, sa sem mo


Instrumental (just play):

RIFF A
and
RIFF B


Refrain 3:
        F#m       Bm7
wag ka munang umuwi
          F#m       Bm7   E-E7
hangat di pa ako ngumingiti


Chorus:
    A9              E
babalik natin ang kahapon
    F#m7       D
mabubuhay sa noon,
   A9         E
nakaraang laging masaya
       F#m7           D
pakikingan si ely buendia
     A9         E
para di takot mapuyat pag-
    F#m7         D
tatagayan lang kita...
 A9           E
minsan lang kita makasama
     F#m7        D
salubungin ang umaga...


Bridge:
    F#m7                      D
panahon ng nangongopya sa eskwela
    F#m7                D
ligawan sa gitna ng kalsada
    F#m7                 D
panahon ng mga tunay na banda
 F#m7                D
nakaw lang ng mga pirata
    F#m7                D
panahon ng bulag na sistema
   F#m7                   D
malayang nag rarally ang masa


Outro:
     F#m             G
babalik sa dekada nobenta...
    A        C#m
(nobenta, nobenta)
     F#m             G
babalik sa dekada nobenta...
    A        C#m
(nobenta, nobenta)
     F#m             G
babalik sa dekada nobenta...
    A        C#m
(nobenta, nobenta)
     F#m             G
babalik sa dekada nobenta...
    A        C#m
(nobenta, nobenta)




kindly rate my tab if you appreciate my work
positive and negative comments, suggestion and opinions are also welcome.





Comments


Popular Silent Sanctuary tabs & chords
Estella Chords
Hay Naku 2 Chords
Hinga Ng Malalim Chords
Paalam Chords
Pauwi Na Ako Chords
Sandali Lang 3 Chords
Tuyo Na'ng Damdamin Chords
Hiling 2 Tabs
Meron Nang Iba 1 Tabs
Rebound 1 Tabs


Song lyrics



↑ Back to top | Tablatures and chords are parodies/interpretations of the original songs. You may use it for private study, scholarship, research or language learning purposes only
© 2014 AZChords.com Contact us | Privacy policy | DMCA | Add/correct tabs | Request tabs | Top 50 tabs