>
 >
Tell Me 2

Tell Me 2 Guitar Tabs

Side A - Tell Me 2 chords, tabs, tablatures, lyrics

Guitar lessons | Add/correct | Request | Top 50 tabs Artists:  A B C D E F G H I J K L M N O P Q R S T U V W X Y Z 0-9

Tell Me 2 Guitar Tabs – Side A

CD, Sheet music, Poster

Do you like Tell Me 2? Share with your friends now
ChordsChords v2TabsTabs v2Tabs v3Tabs v4Ukulele
JOSHUA SORIANO

This song is really great!!!!!
It is originally sang by joey albert!!!!
This tab is really great!!!
                                   Txt  me @ 09205563869 for more info:


Intro:
e---0-----3-----1--3-|
b-1-----3-----1----3-|
g--------------------|
d--------------------|
a-3-----2-----1----2-|
e------------------3-|

verse:                      repeat 2x
e-0---------0---------00h1--------------0-----------------3----|
b-----1----------1----------0h1--3--3------0--1--3-1-0--------3-|
g---0---0------0---0-------------------0----------------2-------|     
d---------------------------------------------2-----------------|
a---------------------2----------2--2-------------------1-----2-|
e-3---------2---------------------------------------------------| 

chorus:
e-3------3------------7-8-7------------7-7-8-7----------8/10--8-0-1-------|
b-3---3--30h1-1-3-0---------8/10--8------------8/10--8--------------0--3-|
g---0---------------------------------------------------------------------|
d-----------------------------------------------------------------3-------|
a--------0------------8------------7---8--------------7-----------------2-|
e-0-----------------------------------------------------------------------|

e-3/5-3---3-3-----------7-8-7---------7-7-8-7---------7-7h8--0-|
b-3/5-3-3---30h1-1-3-0------------8----------8/10-8-----------|
g-----------------------------8/10-----------------------------|
d----------------------------------7---------------------------|
a-----------0-----------8-------------8------------7-----------|
e-----0--------------------------------------------------------|

ending:
e-1--3--5--7--8---8--8---8--8---8----8---8---8-|
b-------------8-8----8-8----8-8------8---8---8-|
g----------------------------------------------|
d-3--3--3--5--8------7------6------5---5---5---|
a----------------------------------------------|
e--------------------------------------------8-|





Comments


Popular Side A tabs & chords
Forevemore Chords
Forevermore Chords
If Only Chords
Until Then Chords
Forevermore 1 Tabs
Hurt Tabs
All I Need Ukulele
Later Ukulele
Nais Ko Ukulele
Tell Me Ukulele


Song lyrics



↑ Back to top | Tablatures and chords are parodies/interpretations of the original songs. You may use it for private study, scholarship, research or language learning purposes only
© 2014 AZChords.com Contact us | Privacy policy | DMCA | Add/correct tabs | Request tabs | Top 50 tabs