» » »

Forevermore Tabs (ver.2)

Artists:  A B C D E F G H I J K L M N O P Q R S T U V W X Y Z # 

Forevermore Tabs (ver.2)

Side A
Rating:
5/5 (1 vote)

Tabs too difficult? Try these video lessons and learn fast.
                Gtr I (E A D G B E) - 'Guitar'
Gtr II (E A D G B E) - 'Bass arr. for guitar'


   Intro
    Q=80
    E     E7       A/C#
   4/4
    Gtr I
    E E E  Q   E E E   +Q   E Q     E  E E
||-------------0-----|--------0----------0-|
||o-----0--0-----0---|------0----------0---|
||----1------------2-|-(2)----2-----2----2-|
||-------------------|------2----------2---|
||o---2---/5-------4-|-(4)------(4)-4------|
||--0-----(0)--------|---------------------|
    E Q    H       E   +H       +E  Q.


  E     E7       A/C#
  E E E  Q   E E E   +Q   E E +H
|------------0-----|--------0-(0)----||
|-----0--0-----0---|------0----------||
|---1------------2-|-(2)----2-(2)----||
|------------------|------2----------||
|---2---/5-------4-|-(4)-------------||
|-0-----(0)--------|-----------------||
  E Q    H       E   +W


 Verse 1 & 2
  E      B/D#      C#m7    E/B       A9                 F#m7   Bsus4B
  E E Q  E E E E   E E E E E E E E   +E  E E E +H       H    a E  E E S S
|----------------|---------------0-|-(0)-----0-(0)----|--------------------|
|-----0--------4-|-5-----5-----0---|---------0-(0)----|------4s5----4------|
|---1--------4---|-----4-----1-----|-------2----------|-2------------------|
|----------4-----|---6-------------|-----2------------|-2---------4--------|
|--------6-------|-4-------2-------|--0---------------|--------2------2h4--|
|-0--------------|-----------------|------------------|-2------------------|
  H      H         H       H          W                 H      Q.     E


  E      B/D#      C#m7    E/B       A9               F#m7   BsusB
  E E Q  E E E E   E E E E E E E E   E E E E +H       E E Q  E E E S S
|----------------|---------------0-|-------0-(0)----|------------------||
|-----0--------7-|-5-----5-----0---|-------0-(0)----|-----5--5---4-----||
|-1-1--------4---|-----4-----1-----|-----2----------|------------------||
|-2--------4-----|---6-------------|---2------------|---2------4---4h6-||
|--------6-------|-4-------2-------|-0--------------|--------2---3-----||
|-0--------------|-----------------|----------------|-2----------------||
  H      H         H       H         W                H      Q   E E


 Pre-Chorus
                 $
  C#m7             F#sus4          B       A      G#m7 B7
  E E E E +H       E E Q  H      a E E E E H      H     H
|-0-----0-(0)----|-------------|---------7------|------^7----||
|-0---0----------|-------------|-----------5----|-7----^7----||
|---1------------|-----4--3----|-7s8-----8-6----|-4----^8----||
|----------------|---2----2----|-------9--------|------^7----||
|-4--------------|-------------|-----9----------|------^9----||
|----------------|-2-----------|-6s7-------5----|-4----^7----||
  W                W               H       H


 Chorus
  E       G#m7      A9               E       G#m7        A
  E E E E E E E E   E E E E +H       E E E E E E E E   a E E E E Q  Q
|-----0-------0---|-------0-(0)----|-----0-------0---|-----0---0-------|
|-------0-------0-|-------0-(0)----|-------0-------0-|-1s2---0------2--|
|-1-1-----4-4-----|-----2----------|-1-------4-------|-----------2--2--|
|-2---------------|---2------------|-2-2-----4-4-----|-----------2-----|
|-----------------|-0--------------|-----------------|---0----------2--|
|-0-------4-------|----------------|-0-------4-------|-----------2-----|
  H       H         W                H       H           H       Q  Q


                                 To Coda
  E7                   A9                 G#m7    C#m7        F#m7  Am/F#
  E  E Q     Q   Q     E E E E +E  E Q     Q  +E   E +H        H     H
|------0-------------|-------0-(0)------|-------------------|--------------||
|------------3---3---|-------0-(0)---0--|-^7--(7)-^5-(5)----|-^2----^1----o||
|----1---------------|-----2-------2----|-^4--(4)-^4-(4)----|-^2----^2-----||
|--------2s4---4-----|---2--------------|-^4--(4)-----------|-^2-----------||
|------------------2-|-0----------------|---------^4-(4)----|-------^0----o||
|-0------------------|------------------|-^4--(4)-----------|-^2----^2-----||
  Q.     a Q   Q   E   W


 Interlude                               Bridge
  E                                       C                  Bm7    Em
  E E E E E E E E   E E E E +H            E E E E +E  E Q    E E Q  E E Q
|-------0-----0---|-------0-(0)--------||-------0-(0)---0--|---------------|
|-----0---0-----0-|-----0--------------||-------1-(1)---1--|-----3------0--|
|---1-------1-----|---1---------1h2-4--||-----0-------0----|-----2------0--|
|-----------------|--------------------||---2--------------|---4------2----|
|-----------------|--------------------||-3----------------|-2-------------|
|-0---------------|-0-------(0)--------||------------------|--------0------|
  W                 H       +E  S S Q     W                  H      H


  Am7    D        G
  E E Q  E E Q    E  E a E E +H
|------------2--|--------------------|
|-----1------3--|------0h1-0-(0)-----|
|-----0----2----|--------------------|
|---2----0------|----0-0h2-0-(0)-----|
|-0-------------|--------------------|
|---------------|-3---------------2--|
  H      H        H.              Q


  Em      A7        D           G
  +E  E E E +Q.     E   +Q.     E +E  E Q
|-------------------2-|-(2)-----------------|
|-(0)-----2-(2)-----3-|-(3)-----3-(3)-------|
|---------0-(0)-----2-|-(2)-----------------|
|-------2-----------0-|-(0)-----5-(5)---5---|
|-----2---0-(0)-2-4---|---------------5-----|
|--0------------------|-----0-2-3-(3)-------|
   Q.     E +E  E Q      E  E E E +H


                                 Bass Solo
  C9                Am   D/FB7    E      B/D#        C#m7    E/B
  Q  S S E +H       H    Q  Q     Q  Q    E  E E E   E E E E E E E E
|----3-3-3-(3)----|------2--2--||-7----------------|---------------0--|
|-3--3-3-3-(3)----|-1----3--0--||-0--0-----------7-|-5-----5-----0----|
|-5--5-5-5-(5)----|-2----2--2--||--------------4---|-----4-----1------|
|-5--5-5-5-(5)----|------0-----||-6----------4-----|---6--------------|
|-3--3-3-3-(3)----|-0-------2--||---------6--------|-4-------2--------|
|-----------------|------2-----||-0----------------|------------------|
|                                 H       H          H       H
|
| Gtr II
| W                 W             Q  E E +H          E E E E E E E E
|-----------------|------------||------------------|------------------|
|-----------------|------------||----9-7-(7)-------|-----4-7-5--------|
|-----------------|------------||------------------|---4---------6-4--|
|-----------------|------------||------------------|-6---------6------|
|-----------------|------------||------------------|------------------|
|-----------------|------------||------------------|------------------|


  A9                       F#m7      Bsus4 B
   E  E E E +H             H       a  E  E E S S
|--0------0-(0)----------|-----------------------|
|---------0-(0)----------|---------4s=5----4-----|
|-------2----------------|-2---------------------|
|-----2------------------|-2-------------4-------|
|--0---------------------|------------2------2h4-|
|------------------------|-2---------------------|
|  W                       H          Q.     E
|
| +H.            +E  S S   E E E E   +H
|------------------------|-----------------------|
|------------------------|-----------------------|
|-(4)------------(4)-----|-4---------------------|
|--------------------6-7-|---7-6-4---(4)---------|
|------------------------|-----------------------|
|------------------------|-----------------------|


  E         B/D#            C#m7    E/B
   E  E Q    E  E  E  E     E E E E E     E E E
|-------------------------|-------------------0-|
|-------0-------------7---|-5-----5---------0---|
|--1--1------------4------|-----4---------1-----|
|--2------------4---------|---6-----------------|
|------------6------------|-4-------2-----------|
|--0----------------------|---------------------|
|  H         H              H       H
|
| +E  E E E +Q    +E  S S   E E E E E  a  E E E
|-------------------------|-------------------9-|
|-------------------------|-----4-7-5-(5)s7-9---|
|-------6-4-(4)---(4)-4---|---4-----------------|
|-(4)-6-----------------7-|-6-------------------|
|-------------------------|---------------------|
|-------------------------|---------------------|


                                                   D.S. al Coda
  A9                      F#m7    Bsus4            C#m7
  E  E E E +H             E E Q    E  E E   S S    E E E E +H
|--------0-(0)----------|-----------------------||-0-----0-(0)----|
|--------0-(0)----------|-----5----5----4-------||-0---0----------|
|------2----------------|-----------------------||---1------------|
|----2------------------|---2---------4-----4h6-||----------------|
|-0---------------------|----------2----3-------||-4--------------|
|-----------------------|-2---------------------||----------------|
| W                       H        Q    E   E      W
|
| H.            +E  S S   E E E E +Q    S S S S    W
|-7-------------(7)-4-5-|-7-5-4-2-(2)-----------||----------------|
|-----------------------|---------------1-2-4-1-||-2--------------|
|-----------------------|-----------------------||----------------|
|-----------------------|-----------------------||----------------|
|-----------------------|-----------------------||----------------|
|-----------------------|-----------------------||----------------|


  &
  G#m7  C#m7    F#m7    BsusA     G#m7  C#m7    Bb°9    B7/A
   H     H      E E E E E E E E    H     H      E E E E Q  Q
|-------------|-----------------|-------------|-------0--------|
|-^7----^5----|-------2-4---2---|-^7----^5----|-----2---4--2---|
|-^4----^4----|-2---2-----------|-^4----^4----|---1-----2--2---|
|-^4----------|---2-------4---2-|-^4----------|------------2---|
|-------^4----|---------2---0---|-------^4----|-1-------0------|
|-^4----------|-2---------------|-^4----------|----------------|
                H       Q   Q                   H       H


  G#m7  C#m7      F#m7    Am        G#m7    C#m7      F#m7    B   A
   H     E E Q    E E E E E E E E   E E E E E E E E   E E E E E E E E
|---------------|-----------------|-----------------|------------------|
|-^7----^5------|-------2---------|---------5-----5-|-------2-4---2----|
|-^4----^4---4--|-2---2---5-----5-|-4-----4-----4---|-2---2------------|
|-^4-------6----|---2---------7---|-----4-----6-----|---2-------4---2--|
|-------^4------|-----------7-----|---6-----4-------|---------2---0----|
|-^4------------|-2-------5-------|-4---------------|-2----------------|
                  H       H         H       H         H       Q   Q


  G#m7    C#m7      Bb°9    B7/AA     G#m7    C#m7      F#m7    B7
  E E E E E E E E   E E E E E E E E   E E E E E E E E   E E E E  H
|-----------------|-------0---------|-----------------|--------------|
|---------5-----5-|-----2---4---2---|-------7-5-----5-|---------^2---|
|-4-----4-----4---|---1-----2-2-2-2-|-4-----------4---|-2-----2-^2---|
|-4---4-----6-----|-------------2---|-4---4-----6-----|-2---2--------|
|---6-----4-------|-1-------0-------|---6-----4-------|---4-----^2---|
|-4---------------|-----------------|-4---------------|-2------------|
  H       H         H       H         H       H         H        H


                              H.=H
  E     E7       A/C#                                       E
  E E E  Q   E E E   +Q   E E +H       E E E E E a E +Q     E E E E  H
|------------0-----|--------0-(0)----|--------------------|---------^0----*|
|-----0--0-----0---|------0----------|--------------------|-------0-^0----*|
|---1------------2-|-(2)----2-(2)----|--------------------|-----1---^1----*|
|------------------|------2----------|-7-6-4-2---2s4-(4)--|---4-----^2----*|
|---2---/5-------4-|-(4)-------------|-3-------3----------|---------^2----*|
|-0-----(0)--------|-----------------|--------------------|-0-------^0----*|
  E Q    H       E   +W                                     H        H
            
Tabs too difficult? Try these video lessons and learn fast.




comments powered by Disqus
↑ Back to top | Tablatures and chords are parodies/interpretations of the original songs. You may use it for private study, scholarship, research or language learning purposes only