» » »

Sick Of Sarah, Paint Like That Tabs (ver.1)

Artists:  A B C D E F G H I J K L M N O P Q R S T U V W X Y Z # 

Paint Like That Tabs (ver.1)

Sick Of Sarah Tabs
 Rating:
4.2/5 (5 votes)
Paint Like That lessons Tabs too difficult? Try these video lessons and learn fast
                This is how abisha plays the song figured it out from a video.... ps this is my first 
so go easy on me :)The strumming is pretty easy to figure out by listening to the song


Tuning: Capo 4th fret

Intro

e|--3-\-8--------|
B|--3-\-8--------|
G|--0-\-0--------|
D|--0-\-0--------|
A|--2-\-7--------|
E|--3-\-8--------|
*repeat some times i slide just leaving my middle finger on the 3rd to 8th fret instead 
the full chord

Verse 1
So far away,We never did touch too much,
I felt like this empty plate, This half sipped on coffee cup,
I’ll paint you sceneries, With the prettiest colors You ever did see,
And no I never paint like that, No I never paint like that, like that

e|--3---3---0---0------3---3---0----3----2---0----7--------|
B|--3---3---1---3------3---3---1----3----3---1----7--------|
G|--0---0---0---0------0---0---0----0----2---0----0--------|
D|--0---0---2---4------0---0---2----0----0---2----0--------|
A|--2---2---3---5------2---2---3----2--------3----7--------|
E|--3---0---0---0------3---0---0----0--------0----8--------|

Verse 2
Were so far away, No we never did talk enough,
I felt like this empty place It was made up with hollow space,
And I'll write you poetry,Oh I'll use the prettiest words That you ever did read,
And No I never write like that No I never write like that, I never write like that
e|--3---3---0---0------3---3---0---0----------|
B|--3---3---1---3------3---3---1---1----------|
G|--0---0---0---0------0---0---0---0----------|
D|--0---0---2---4------0---0---2---4----------|
A|--2---2---3---5------2---2---3---5----------|
E|--3---0---0---0------3---0---0---0----------|

Bridge
e|--0---0---3------0---0---3------0---0--------|
B|--1---3---3------1---3---3------1---3--------|
G|--0---0---0------0---0---0------0---0--------|
D|--2---4---0------2---4---0------2---4--------|
A|--3---5---2------3---5---2------3---5--------|
E|--0---0---0------0---0---0------0---0--------|


Is it your heart that’s tearing you apart,
Is it your heart that’s tearing you apart,
Is it your heart that’s tearing you apart
e|--3---2---0-----3---2---0-----3---2---0---7-------|
B|--3---3---1-----3---3---1-----3---3---1---7-------|
G|--0---2---0-----0---2---0-----0---2---0---0-------|
D|--0---0---2-----0---0---2-----0---0---2---0-------|
A|--2-------3-----2-------3-----2-------3---7-------|
E|--0-------0-----0-------0-----0-------0---8-------|

Ending
e|--3---3---0---0--------------------7------------|
B|--3---3---1---3--------------------7------------|
G|--0---0---0---0--------------------0------------|
D|--0---0---2---4--------------------0------------|
A|--2---2---3---5--------------------7------------|
E|--3---0---0---0--------------------8------------|


| \  slide down

===============================================================================
            
Submit corrections

comments powered by Disqus
↑ Back to top | Sick Of Sarah Tabs for Paint Like That. Lyrics for acoustic guitar and electric guitar. Tablatures and chords are parodies/interpretations of the original songs. You may use it for private study, scholarship, research or language learning purposes only