» » »

One Night Stand Bass tabs (ver.1)

Artists:  A B C D E F G H I J K L M N O P Q R S T U V W X Y Z # 

One Night Stand Bass tabs (ver.1)

Sick Of Sarah
Rating:
0/5 (0 votes)

Tabs too difficult? Try these video lessons and learn fast.
                Band:Sick of Sarah
Tunning:Drop D

Intro(Come in at 0:06): 

G|---------------------------------------------------------------------|
D|-----97--------------------------------------------------------------|
A|--------9--7--10 10----10--------9-----------------------------------|
D|8-------------------------10--9--------------------------------------| x2

Verse:

G|---------------------------------------------------------------------|
D|-----97--------------------------------------------------------------|
A|--------9--7--10 10----10--------9-----------------------------------|
D|8-------------------------10--9--------------------------------------| x4

Pre-Chorus:

G|---------------------------------------------------------------------|
D|---------------------------------------------------------------------|
A|---------7-7-77--10-10-1010--------9-9-------------------------------|
D|7-7-77-----------------------10-10-----------------------------------| X2

Chorus:

G|---------------------------------------------------------------------|
D|---------------------------------------------------------------------|
A|---------------------------------------------------------------------|
D|9-9-99--7-7-77--5-5-55--3-3-7-7--9-9-99--7-7-77--5-5-55--4-4-7-7-----| x1

Verse:

G|---------------------------------------------------------------------|
D|-----97--------------------------------------------------------------|
A|--------9--7--10 10----10--------9-----------------------------------|
D|8-------------------------10--9--------------------------------------| x4

Pre-Chorus:

G|---------------------------------------------------------------------|
D|---------------------------------------------------------------------|
A|---------7-7-77--10-10-1010--------9-9-------------------------------|
D|7-7-77-----------------------10-10-----------------------------------| X2

Chorus:

G|---------------------------------------------------------------------|
D|---------------------------------------------------------------------|
A|---------------------------------------------------------------------|
D|9-9-99--7-7-77--5-5-55--3-3-7-7--9-9-99--7-7-77--5-5-55--4-4-7-7-----| x1

Post-Chorus:

G|---------------------------------------------------------------------|
D|---------------------------------------------------------------------|
A|---------------------------------------------------------------------|
D|9-9-99--7-7-77--5-5-55--3-3-7-7--9-9-99--7-7-77--5-5-55--4-4-7-7-----| x1

Bridge:

G|---------------------------------------------------------------------|
D|---------------------------------------------------------------------|
A|-9-9-9-9-9-9-9-9--7-7-7-7-7-7-7-7--5-5-5-5-5-5-5-5--4-4-4-4-7-7-7-7--|
D|---------------------------------------------------------------------| X2

Pre-Chorus:

G|---------------------------------------------------------------------|
D|---------------------------------------------------------------------|
A|---------7-7-77--10-10-1010--------9-9-------------------------------|
D|7-7-77-----------------------10-10-----------------------------------| X2

Chorus:

G|---------------------------------------------------------------------|
D|---------------------------------------------------------------------|
A|---------------------------------------------------------------------|
D|9-9-99--7-7-77--5-5-55--3-3-7-7--9-9-99--7-7-77--5-5-55--4-4-7-7-----| x1

Post-Chorus:

G|---------------------------------------------------------------------|
D|---------------------------------------------------------------------|
A|---------------------------------------------------------------------|
D|9-9-99--7-7-77--5-5-55--3-3-7-7--9-9-99--7-7-77--5-5-55--4-4-7-7-----| x1

End Note:
G|-------------|
D|-------------|
A|-------------|
D|-9~----------|


| /  slide up
| \  slide down
| h  hammer-on
| p  pull-off
| ~  vibrato
| +  harmonic
| x  Mute note
            
Tabs too difficult? Try these video lessons and learn fast.




comments powered by Disqus
↑ Back to top | Tablatures and chords are parodies/interpretations of the original songs. You may use it for private study, scholarship, research or language learning purposes only