» » »

Not Listening Bass tabs (ver.1)

Artists:  A B C D E F G H I J K L M N O P Q R S T U V W X Y Z # 

Not Listening Bass tabs (ver.1)

Sick Of Sarah
Rating:
5/5 (1 vote)

Hard to play? Try these video lessons and learn fast.
                Band: Sick of Sarah

I'm not sure of chorus but verse and bridge are correct.


Standard tuning.


Verse:

G|------------------------------------------|
D|------------------------------------------|
A|------------------------------------------|
D|-7--7-7--5---3~----2~---------------------|


Chorus: [I'm not lonely]

G|------------------------------------------|
D|------------------------------------------|
A|------------------------------------------|
D|-2-2-2-2-2-2-2-2--5-5-5-5-5-5-5-5---------|

 [Say that again...]
G|------------------------------------------|
D|------------------------------------------|
A|------------------------------------------|
D|-7-7---7-7---7-7---7-7--------------------|

  again and again


Verse:
 as before

Chorus:
 as before


Bridge:
G|------------------------------------------|
D|------------------------------------------|
A|-0-9---0-7-7--0-5-5--4--------------------|
D|-----------------------2~~----------------|

and then

Chorus:
 as before 

=====================================================================
            
Hard to play? Try these video lessons and learn fast. | Correct




comments powered by Disqus
↑ Back to top | Tablatures and chords are parodies/interpretations of the original songs. You may use it for private study, scholarship, research or language learning purposes only