» » »

Sick Of Sarah, Mr. Incredible Tabs (ver.2)

Artists:  A B C D E F G H I J K L M N O P Q R S T U V W X Y Z # 

Mr. Incredible Tabs (ver.2)

Sick Of Sarah Tabs
 Rating:
4/5 (4 votes)
Mr. Incredible lessons Tabs too difficult? Try these video lessons and learn fast
                so this is probably almost perfect to the acoustic version of the song. this is guitar 
guitar 2 plays D#, B, C#, C#  continuously. if you figure something out that i dont have 


\- slide down
/-slide up
h-hammer on
p-pull off


|----------------------------------------------------------------------|
|-----------------------------16---------------------------------------|
|15-15-15-15-15-18\--15-15-18----18-15-15-16-15----10-h11-p10----------|
|-----------------------------------------------15-----------11-11/13--|
|--------------------------------------------------------------------13|
|----------------------------------------------------------------------|


|--------------------|
|--------------------|
|10-h11-p10----------|
|---------11-11/13---|
|------------------13|
|--------------------|


|-------------------------------------------------------|
|-------------------------------------------------------|
|---15----13-13----11----10-10--10-h11-p10--------------|
|16----15-------13----11-------------------11-11/13-----|
|---------------------------------------------------13--|
|-------------------------------------------------------|


 verse-D#, B, C#, C#

Hello Mr. Incredible
Please take off your cape
Tell me all your secrets
And where you escape
What’s up Mr. Magnificent
I have got a box full of your charms
Please tell me I’m the lucky one
It could do me no harm

bridge- play intro again


chorus-D#, B, C#, C#

Hello Mr. Incredible
Your words are so edible
I wanna eat them up up
Baby it’s me
You f**k me over with the lights on
Nice one
You f**k me over with the lights on
Hey!

play intro after chorus

verse-D#, B, C#, C#

Hello Mr. Incredible
Please take off your cape
Tell me all your secrets
And where you escape
What’s up Mr. Magnificent
I have got a box full of your charms
Please tell me I’m the lucky one
It could do me no harm

play intro

chorus-D#, B, C#, C#

Hello Mr. Incredible
Your words are so edible
I wanna eat them up up
Baby it’s me
You f**k me over with the lights on
Nice one
You f**k me over with the lights on
Hey!

play intro

D#, B, C#, C#

f**k you mr incredible
            
Submit corrections

comments powered by Disqus
↑ Back to top | Sick Of Sarah Tabs for Mr. Incredible. Lyrics for acoustic guitar and electric guitar. Tablatures and chords are parodies/interpretations of the original songs. You may use it for private study, scholarship, research or language learning purposes only