» » »

Sick Of Sarah, Mother Fucker Tabs (ver.1)

Artists:  A B C D E F G H I J K L M N O P Q R S T U V W X Y Z # 

Mother Fucker Tabs (ver.1)

Sick Of Sarah Tabs
 Rating:
4.3/5 (6 votes)
Mother Fucker lessons Tabs too difficult? Try these video lessons and learn fast
                
-------------------------------------------------------------------------------
        Sick of Sarah Mother F*cker
-------------------------------------------------------------------------------
   It's my first tab. I hope I didn't mess up.
Listen to the song to get the strum pattern.

Tuning:Standard Capo 4
          Verse
               G         Em       D        C
e|-------------3---------3--------2--------0-------------|
B|-------------3---------3--------3--------1-------------|
G|-------------0---------0--------2--------0-------------|
D|-------------0---------0--------0--------2-------------|
A|-------------2---------2--------x--------3-------------|
E|-------------3---------0--------x--------x-------------|
     Chorus
         C                ?
e|-------0----------------0------------------------------|
B|-------1----------------3------------------------------|
G|-------0----------------0------------------------------|
D|-------2----------------4------------------------------|
A|-------3----------------5------------------------------|
E|-------x----------------x------------------------------|

          Bridge
               G         Em       D        C
e|-------------3---------3--------2--------0-------------|
B|-------------3---------3--------3--------1-------------|
G|-------------0---------0--------2--------0-------------|
D|-------------0---------0--------0--------2-------------|
A|-------------2---------2--------x--------3-------------|
E|-------------3---------0--------x--------x-------------|

    Chorus
         C                ?
e|-------0----------------0------------------------------|
B|-------1----------------3------------------------------|
G|-------0----------------0------------------------------|
D|-------2----------------4------------------------------|
A|-------3----------------5------------------------------|
E|-------x----------------x------------------------------|

    End
         C                ?              G
e|-------0----------------0--------------3---------------|
B|-------1----------------3--------------3---------------|
G|-------0----------------0--------------0---------------|
D|-------2----------------4--------------0---------------|
A|-------3----------------5--------------2---------------|
E|-------x----------------x--------------3---------------|

************************************

| x   Mute note


************************************
            
Submit corrections

comments powered by Disqus
↑ Back to top | Sick Of Sarah Tabs for Mother Fucker. Lyrics for acoustic guitar and electric guitar. Tablatures and chords are parodies/interpretations of the original songs. You may use it for private study, scholarship, research or language learning purposes only