>
 >
Kiss Me

Kiss Me Guitar Tabs

Sick Of Sarah - Kiss Me chords, tabs, tablatures, lyrics

Guitar lessons | Add/correct | Request | Top 50 tabs Artists:  A B C D E F G H I J K L M N O P Q R S T U V W X Y Z 0-9

Kiss Me Guitar Tabs – Sick Of Sarah

CD, Sheet music, Poster

Do you like Kiss Me? Share with your friends now
Tabs
This song is one of my favorites from the album, and i think is really easy to play, so, 
here it is. I tabbed the song by ear so
if there's anything that you think sounds odd, just tell me, but I think that's the way 
they play it, and to me it sounds really good.


Verse:

Rhythm guitar (Jessie)
Standard tuning

[Verse] "Place me down, like water when it drips..."
(Palm muted)
|--------------------------------------|
|--------------------------------------|
|--------------------------------------|
|--2-----4-----6------7----------------|
|--2(x8)-4(x8)-6(x8)--7(x8)------------|   x4
|--0-----2-----4------5----------------|
   .     .     .      .
This goes on until 0:30, when the Pre-chorus starts


Lead guitar(Katie):
(0:16-0:30) "I do this all the time..."

|---------------------------------------|
|--999---999---999---999-999-10---------|
|--999-9-999-9-999-9-999-999-9----------|  x2
|------9-----9-----9--------------------|
|---------------------------------------|
|---------------------------------------|


[Pre-chorus]
(0:30 - 0:45) "I know, I know, I know..."

Rhythm guitar

|------------------------------|
|------------------------------|
|--4-------7-------------------|
|--4(x16)--7(x16)--------------|
|--2-------5-------------------|
|------------------------------|


Lead guitar

(0:30 - 0:42)               *
|----44-22-00-22-22-22-00-22-44-22-00-22-44-22-55-44--|
|----22-22-22-22-44-22-22-22-22-22-22-22-22-22-55-22--|
|-----------------------------------------------------|
|-----------------------------------------------------|
|-----------------------------------------------------|
|-----------------------------------------------------|

 This part is kind of tricky, play that until 0:38, repeat it, and when you get to the * 
and Abisha sings "We were exactly where we wanted to be.." play this:

|---55-55-77-777777-------|
|---55-55-55-555555-------|
|-------------------------|  Just listen to the song and you will get it.
|-------------------------|
|-------------------------|
|-------------------------|


[Chorus]
(0:45 - 1:00) "So kiss me, kiss me..."

Rhythm:
|----------------------|
|----------------------|
|--4-4/6-6-------------|
|--4-4/6-6-6-6-7-7-----|
|--2-2/4-4-6-6-7-7-----|
|----------4-4-5-5-----|

Lead:

|-----------------------------------|--------------------------|
|-----------------------------------|--------------------------|
|--11-11-9--9-----------------------|--11-11-9--9--------------|
|--9--9--11-11-------9------9-11-9--|--9--9--11-11--------9\---| x2
|-------------7/9-11---9h11---------|--------------9-9h11------|
|-----------------------------------|--------------------------|


Repeat Verse

Repeat Chorus


Bridge:
(2:00 - 2:30) "There's always something left to say..."
There is no rhythm guitar in the bridge.

Lead Guitar: (Clean)
|--4--5~--5p4---555---4--5--7~-----7----7------4--|
|--5--5~--------555---5--5--5~---5--5-5--5-5---5--|
|--6--6~-----6--666---6--6--6~--6-6--6-6--6----6--|
|-------------------------------------------------|
|-------------------------------------------------|
|-------------------------------------------------|

|--4--5~--5p4---555---4--5--77-77-77-77--777777----|
|--5--5~--------555---5--5--55-55-55-55--555555----|
|--6--6~-----6--666---6--6--66-66-66-66--666666----|
|--------------------------------------------------|
|--------------------------------------------------|
|--------------------------------------------------|

[Last Chorus]
This chorus only changes for the lead guitar, the rhythm guitar does the same thing.
The last chorus plays twice, the first time is the same but from 2:45 to 3:15 goes like this:

"So kiss me, kiss me..."
|--14-14--12-12-----------14-14-12-12----12------12-14-12---|
|--12-12--14-14--13~-14~--12-12-12-12--14---12h14-----------|
|-----------------------------------------------------------|
|-----------------------------------------------------------|
|-----------------------------------------------------------|
|-----------------------------------------------------------|

Repeat this and let ring on the last note, and there you go, song's over! :D

That's it, personally I think is a really easy song. Please leave me some feedback about 
the tab, I would really appreciate it ;)





Comments


Popular Sick Of Sarah tabs & chords
Autograph Chords
Fall Chords
Just Cant Sleep Chords
Autograph 2 Tabs
Giving Up Tabs
Hardest Part Tabs
Kick Back Tabs
Mother Fucker Tabs
Paint Like That Tabs
Paint Like That Ukulele


Song lyrics



↑ Back to top | Tablatures and chords are parodies/interpretations of the original songs. You may use it for private study, scholarship, research or language learning purposes only
© 2014 AZChords.com Contact us | Privacy policy | DMCA | Add/correct tabs | Request tabs | Top 50 tabs