» » »

Sick Of Sarah, Fall Chords (ver.1)

Artists:  A B C D E F G H I J K L M N O P Q R S T U V W X Y Z # 

Fall Chords (ver.1)

Sick Of Sarah Tabs
Rating:
0/5 (0 votes)
Fall lessons Tabs too difficult? Try these video lessons and learn fast
                
Tuning: Tune the high e string down to d

For the intro/ verse you play the bottom two notes of the chord and then strum the chord
the video for the timing).  You do that three times with the different chords (G5, D5,
C5--yes, all power chords) and then you play the harmonics.  The first time it you "bar" 
(don't press down) on the fifth fret.  The second is the D, G, and B string on
twelfth fret.  The singing is slightly behind the chord change.


Intro/Verse
   G5       D5       C5    (harmonic) G5    D5        C5       harmonics
D|-----000------000------0000---500------000------000------0000------------|
B|-----000------000------0000---500------000------000------0000-------(12)-|
G|-----000------777------5555---500------000------777------5555----(12)----|
D|-----555----7-777----5-5555---500------555----7-777----5-5555--(12)------|
A|---5-555--5---555--3---3333---500----5-555--5---555--3---3333------------|
E|-3---333------000------0000---500--3---333------000------0000------------|

Chorus:
     C5   D5  C5    Em    C5   D5  2x
D|---0----0----0----0----0----0-----------------------------------------------|
B|---0----0----0----0----0----0-----------------------------------------------|
G|---5----7----5----0----5----7-----------------------------------------------|
D|---5----7----5----2----5----5-----------------------------------------------|
A|---3----5----3----2----3----3-----------------------------------------------|
E|---0----0----0----0----0----0-----------------------------------------------|

Verse:
G5            D5              C5
  Your heart is taking such a break
G5         D5                C5
  Am I the wet socks that you hate

Ect.


Chorus:
           D5
You never called
          C5                Em
You never seemed unlucky, untamed
         C5                      D5
I was so hoping, that I was more able
   C5              Em
To be, now I’m afraid
                       C5
That this world was lying
        D5
When my heart was crying
    C5                  Em
And I can’t take this pain
                C5             D5       C5(intro/verse structure)
When you never call, you never fall, my way.
            
Submit corrections

comments powered by Disqus
↑ Back to top | Sick Of Sarah Chords for Fall. Lyrics for acoustic guitar and electric guitar. Tablatures and chords are parodies/interpretations of the original songs. You may use it for private study, scholarship, research or language learning purposes only