» » »

Breakdown Tabs (ver.1)

Artists:  A B C D E F G H I J K L M N O P Q R S T U V W X Y Z # 

Breakdown Tabs (ver.1)

Sick Of Sarah
Rating:
4/5 (3 votes)

Hard to play? Try these video lessons and learn fast.
                -------------------------------------------------------------------------------
-------------------------------------------------------------------------------

Tuning: Standard, Capo on the first fret



listen to the song to get the correct strumming pattern

e|--0-0---0-0-0---1-1---2-2-2------------------------------------------------|
B|--0-0---1-1-1---0-0---3-3-3------------------------------------------------|
G|--0-0---0-0-0---0-0---2-2-2------------------------------------------------|
D|--2-2---2-2-2---0-0---0-0-0------------------------------------------------|
A|--2-2---3-3-3---2-2---0-0-0------------------------------------------------|
E|--0-0---0-0-0---3-3---0-0-0------------------------------------------------|

second guitar during verse:
e|---------------------------------------------------------------------------|
B|---------------------------------------------------------------------------|
G|---------------------------------------------------------------------------|
D|------9--------0------9-------------9---11-9-------------------------------|
A|----9---9---9---9---9---9---9--9---9--9------------------------------------|
E|--7-------7-------7-------7---6--7-----------------------------------------|

Chorus:
e|---------------------------------------------------------------------------|
B|---------------------------------------------------------------------------|
G|--9-9---5-5---7-7---1-1------9-9--5-5--7-7--8------------------------------|
D|--9-9---5-5---7-7---2-2------9-9--5-5--7-7--8------------------------------|
A|--7-7---3-3---5-5---2-2------7-7--3-3--5-5--6------------------------------|
E|---------------------------------------------------------------------------|


e|---------------------------------------------------------------------------|
B|---------------------------------------------------------------------------|
G|---------------------------------------------------------------------------|
D|--5----7-----9-------------------------------5-5-5--7----------------------|
A|--5----7-----9-------------------------------5-5-5--7----------------------|
E|--3----5-----7-------------------------------3-3-3--5----------------------|
"and you knew exactly what I was looking for...  oh-ohhh"


outro, repeat until it fades out:
e|---------------------------------------------------------------------------|
B|---------------------------------------------------------------------------|
G|---------------------------------------------------------------------------|
D|------9--------0------9-------------9--------------------------------------|
A|----9---9---9---9---9---9---9--9---9--9------------------------------------|
E|--7-------7-------7-------7---6--7-----------------------------------------|



| /  slide up
| \  slide down
| h  hammer-on
| p  pull-off
| ~  vibrato
| +  harmonic
| x  Mute note
===============================================================================
            
Hard to play? Try these video lessons and learn fast. | Correct




comments powered by Disqus
↑ Back to top | Tablatures and chords are parodies/interpretations of the original songs. You may use it for private study, scholarship, research or language learning purposes only