» » »

Bittersweet Tabs (ver.1)

Artists:  A B C D E F G H I J K L M N O P Q R S T U V W X Y Z # 

Bittersweet Tabs (ver.1)

Sick Of Sarah
Rating:
0/5 (0 votes)

Hard to play? Try these video lessons and learn fast.
                -------------------------------------------------------------------------------
                             Sick of Sarah - Bittersweet
-------------------------------------------------------------------------------

Tuning: Standard


Lead Intro/Verse
e|-------------7-------------------------------------------------------------|
B|---10---10-----------------------------------------------------------------|
G|--9--9-9--9-9--------------------------------------------------------------|
D|-7----7----7---------------------------------------------------------------|
A|---------------------------------------------------------------------------|
E|---------------------------------------------------------------------------|

Rhythm Intro/Verse
e|---------------------------------------------------------------------------|
B|---------------------------------------------------------------------------|
G|---------------------------------------------------------------------------|
D|-7~-7~-7~------------------------------------------------------------------|
A|---------------------------------------------------------------------------|
E|---------------------------------------------------------------------------|

Lead Chorus x2
e|-44-55-77-99-77-55-77-99-77-55-77-99-777-777-------------------------------|
B|---------------------------------------------------------------------------|
G|---------------------------------------------------------------------------|
D|---------------------------------------------------------------------------|
A|---------------------------------------------------------------------------|
E|---------------------------------------------------------------------------|

e|-44-55-77-99-77-55-77-99-77-55-77-99-101010-121212-97----------------------|
B|---------------------------------------------------------------------------|
G|---------------------------------------------------------------------------|
D|---------------------------------------------------------------------------|
A|---------------------------------------------------------------------------|
E|---------------------------------------------------------------------------|

 Rhythm Chorus x4
e|---------------------------------------------------------------------------|
B|---------------------------------------------------------------------------|
G|-11----7----9--------------------------------------------------------------|
D|-11-x8-7-x8-9-x16----------------------------------------------------------|
A|-9-----5----7--------------------------------------------------------------|
E|---------------------------------------------------------------------------|

Repeat Verse

Lead Bridge
e|-10-9-12-10----------------------------------------------------------------|
B|-10-9-12-12----------------------------------------------------------------|
G|---------------------------------------------------------------------------|
D|---------------------------------------------------------------------------|
A|---------------------------------------------------------------------------|
E|---------------------------------------------------------------------------|

e|-13-13-13-13-16-16-16-16-17-17-17-17-17-17—17-17---------------------------|
B|---------------------------------------------------------------------------|
G|---------------------------------------------------------------------------|
D|---------------------------------------------------------------------------|
A|---------------------------------------------------------------------------|
E|---------------------------------------------------------------------------|
            
Hard to play? Try these video lessons and learn fast. | Correct




comments powered by Disqus
↑ Back to top | Tablatures and chords are parodies/interpretations of the original songs. You may use it for private study, scholarship, research or language learning purposes only