>
 >
Relentless

Relentless Guitar Tabs

Sick Of It All - Relentless chords, tabs, tablatures, lyrics

Guitar lessons | Add/correct | Request | Top 50 tabs Artists:  A B C D E F G H I J K L M N O P Q R S T U V W X Y Z 0-9

Relentless Guitar Tabs – Sick Of It All

CD, Sheet music, Poster

Do you like Relentless? Share with your friends now
Tabs
Band: Sick of it All

This is my first tab ever so don't be too mean is it's not right. Anyway I think it's
100% correct. You just have to listen to the song to figure out when a chord is played
more than once, when the palm muting is and the timing of the octaves when they are played at 1:08.

Tune 1/2 step down to Eb

eb|--------------|-----------------------|----------|----------------\
F#|--------------|-----------------------|----------|-----------------\
Gb|--------------|-----------------------|----------|------------------\ 2x
C#|--2--2------2-|-2--2--3--2---2-----3--|-2--2-----|-2--5--7--5--2----/
G#|--2--2------2-|-2--2--3--2---2-----3--|-2--2-----|-2--5--7--5--2---/
Eb|--0--0p.m.--0-|-0--0--1--0---0p.m--1--|-0--0p.m--|-0--3--5--3--0--/

A little pause

eb|------------------------|----------------1-|-----------------------|--------------\
F#|------------------------|----------------1-|-----------------------|---------------\
Gb|------------------------|----------------2-|-----------------------|----------------\2x 
C#|--5--2---5--2---5-----6-|--5-h2---5-h2---3-|-5--2---5--2---5-----6-|-2--5--7--5--2--/
G#|--5-h2---5-h2---5slide6-|--5-h2---5-h2---3-|-5-h2---5-h2---5slide6-|-2--5--7--5--2-/
Eb|--3--0---3--0---3-----4-|--3--0---3--0---1-|-3--0---3--0---3-----4-|-0--3--5--3--0/

eb|--------------|-----------------------|----------|----------------\
F#|--------------|-----------------------|----------|-----------------\
Gb|--------------|-----------------------|----------|------------------\ 1x
C#|--2--2------2-|-2--2--3--2---2-----3--|-2--2-----|-2--5--7--5--2----/
G#|--2--2------2-|-2--2--3--2---2-----3--|-2--2-----|-2--5--7--5--2---/
Eb|--0--0p.m.--0-|-0--0--1--0---0p.m--1--|-0--0p.m--|-0--3--5--3--0--/

No Pause

eb|-------------------------|----------------1-|------------------------|--------------\
F#|-------------------------|----------------1-|------------------------|---------------\
Gb|-------------------------|----------------2-|------------------------|----------------\2x 
C#|--5--2---5--2---5------6-|--5-h2---5-h2---3-|-5--2---5--2---5------6-|-2--5--7--5--2--/
G#|--5-h2---5-h2---5-slide6-|--5-h2---5-h2---3-|-5-h2---5-h2---5-slide6-|-2--5--7--5--2-/
Eb|--3--0---3--0---3------4-|--3--0---3--0---1-|-3--0---3--0---3------4-|-0--3--5--3--0/

eb|------------------------------------------------------------------\
F#|-------------------------------------------------------------------\
Gb|--7-------9---7-------9-------10---7-------9---7-------9------------\ 4x
C#|--x-slide-x---x-slide-x-slide-x----x-slide-x---x-slide-x---2--------/
G#|--5-------7---5-------7-------8----5-------7---5-------7---2-------/
Eb|-----------------------------------------------------------0p.m.--/

eb|----1-----\
F#|----1------\
Gb|----2-------\ 4x
C#|-2--3-------/
G#|-2--3------/
Eb|-0--1-----/

eb|---------------------------\
F#|----------------------------\
Gb|-----------------------------\ 4x
C#|-2--2----2----2--5---2--5----/
G#|-2--2----2----2-h5---2-h5---/
Eb|-0--0----0----0--3---0--3--/
    Re-lent-les

A little pause

eb|------------------------|----------------1-|-----------------------|--------------\
F#|------------------------|----------------1-|-----------------------|---------------\
Gb|------------------------|----------------2-|-----------------------|----------------\2x 
C#|--5--2---5--2---5-----6-|--5-h2---5-h2---3-|-5--2---5--2---5-----6-|-2--5--7--5--2--/
G#|--5-h2---5-h2---5slide6-|--5-h2---5-h2---3-|-5-h2---5-h2---5slide6-|-2--5--7--5--2-/
Eb|--3--0---3--0---3-----4-|--3--0---3--0---1-|-3--0---3--0---3-----4-|-0--3--5--3--0/





Comments


Popular Sick Of It All tabs & chords
Blown Away Bass Tabs
District Bass Tabs
I Believe Bass Tabs
Underground Bass Tabs
The Shield Chords
Let Go Tabs
Machete Tabs
Nice Tabs
The Blood And The Sweat Tabs
The Shield Ukulele


Song lyrics



↑ Back to top | Tablatures and chords are parodies/interpretations of the original songs. You may use it for private study, scholarship, research or language learning purposes only
© 2014 AZChords.com Contact us | Privacy policy | DMCA | Add/correct tabs | Request tabs | Top 50 tabs