>
 >
Pass The Buck

Pass The Buck Bass Tabs

Sick Of It All - Pass The Buck chords, tabs, tablatures, lyrics

Guitar lessons | Add/correct | Request | Top 50 tabs Artists:  A B C D E F G H I J K L M N O P Q R S T U V W X Y Z 0-9

Pass The Buck Bass Tabs – Sick Of It All

CD, Sheet music, Poster

Do you like Pass The Buck? Share with your friends now
Bass Tabs
S.O.I.A

Intro-When bass comes in
G-----------------
D----------------
A-4*---2*-77777--
E---2*-----------

Verse
G--------------------------------------
D--------------------------------------
A-4444444-----------22222222-7777-6666-
E---------222222222--------------------

We dont pay...
G-------------------- 
D--------------------
A----------6h7777777
E-33333333-----------

The last time u play this...
E-333333333333333-22

Chours
G------------------------------------------------------------------------------
D--------------------------------------------------------------5--5-----7---7--
A-2222-5555-7777777-----2222-55555---------22-555-7777777----3--3---3-5---5----
E--------------------55------------0-0-00-----------------55-------------------

After that, the little bass part
A-444-444-444-444-444...And so on...

After that
G---------------------
D---------------------
A-4444-7777-----------
E-----------777-9999--

Before he starts to sing again u play that like this...
G-------------------------
D-------------------------
A-4444-7777---7---7--------
E-----------7---7---9999---

THEN when he starts singing u play THAT like THIS...phew...
G-------------------------------------
D-------------------------------------
A-4444-7777----------4444-7777--------
E-----------777-9999-----------3-3-33-

Ending riff u play...   I think he plays those E's on the open E string
G----------------------------------
D------*----------*---------*--------
A-44-777777-44-777777-44-777777-4--
E----------------------------------


THATS AS EASY AS IT GETS RATE....





Comments


Popular Sick Of It All tabs & chords
District Bass Tabs
Just Look Around 1 Bass Tabs
Pay The Price Bass Tabs
Potential For A Fall 1 Bass Tabs
The Blood And The Sweat Bass Tabs
Consume Tabs
Its Clobberin Time Tabs
Machete Tabs
Step Down 2 Tabs
My Life Ukulele


Song lyrics



↑ Back to top | Tablatures and chords are parodies/interpretations of the original songs. You may use it for private study, scholarship, research or language learning purposes only
© 2014 AZChords.com Contact us | Privacy policy | DMCA | Add/correct tabs | Request tabs | Top 50 tabs