» » »

Sick Of It All, Maria White Trash Tabs (ver.1)

Artists:  A B C D E F G H I J K L M N O P Q R S T U V W X Y Z # 

Maria White Trash Tabs (ver.1)

Sick Of It All Tabs
 Rating:
4.2/5 (5 votes)
Maria White Trash lessons Tabs too difficult? Try these video lessons and learn fast
                (Intro)
-------------------------------------------------------------------------------
                             MARIA WHITE TRASH - Sick Of It All
-------------------------------------------------------------------------------

Tuning: Dropped D

  x3
e|---------------------------------------------------------------------------|
B|---------------------------------------------------------------------------|
G|---------------------------------------------------------------------------|
D|--0--0--065--03-3-3-3-3-3-3----0-111111--111111--11--11--11111111----------|
A|--0--0--065--03-3-3-3-3-3-3----0-111111--111111--11--11--11111111----------|
E|--0--0--065--03-3-3-3-3-3-3----0-111111--111111--11--11--11111111----------|

e|---------------------------------------------------------------------------|
B|---------------------------------------------------------------------------|
G|---------------------------------------------------------------------------|
D|--0--0--065--03-3-3-3-3-3-3----0-111111--111111--11--00--5555510-----------|
A|--0--0--065--03-3-3-3-3-3-3----0-111111--111111--11--00--5555510-----------|
E|--0--0--065--03-3-3-3-3-3-3----0-111111--111111--11--00--5555510-----------|


| /  slide up
| \  slide down
| h  hammer-on
| p  pull-off
| ~  vibrato
| +  harmonic
| x  Mute note
===============================================================================
            
Submit corrections

comments powered by Disqus
↑ Back to top | Sick Of It All Tabs for Maria White Trash. Lyrics for acoustic guitar and electric guitar. Tablatures and chords are parodies/interpretations of the original songs. You may use it for private study, scholarship, research or language learning purposes only