» » »

Sick Of It All, Injustice System Tabs (ver.1)

Artists:  A B C D E F G H I J K L M N O P Q R S T U V W X Y Z # 

Injustice System Tabs (ver.1)

Sick Of It All Tabs
Rating:
0/5 (0 votes)
Injustice System lessons Tabs too difficult? Try these video lessons and learn fast
                
xzaucedox


SOIA - Injustice system



INTRO: 
e|--------------------------------------------------------------------| 
B|--------------------------------------------------------------------| 
G|--------------------------------------------------------------------| 
D|-2-2-2-2-2-2-2-2-2-2-2-2-2-2-2-2-2-2-2-2-2-2-2-2--------------------| 
A|-2-2-2-2-2-2-2-2-2-2-2-2-2-2-2-2-2-2-2-2-2-2-2-2--------------------| 
E|-0-0-0-0-0-0-0-0-0-0-0-0-0-0-0-0-0-0-0-0-0-0-0-0--------------------| 


VERSE: 
e|--------------------------------------------------------------------| 
B|--------------------------------------------------------------------| 
G|--------------------------------------------------------------------| 
D|--2-2-2-2-2-2--9--7-7-7--10-10-10-10-10-10--------------------------| 
A|--2-2-2-2-2-2--7--5-5-5--8--8--8--8--8--8---------------------------| 
E|--0-0-0-0-0-0-------------------------------------------------------| 


CHORUS: 
e|--------------------------------------------------------------------| 
B|--------------------------------------------------------------------| 
G|--------------------------------------------------------------------| 
D|-2-2-2-2----------2-2-2-2-------------------------------------------| 
A|-2-2-2-2--3-3-3-3-2-2-2-2-3-3-3-3--4-5-4-5--------------------------| 
E|-0-0-0-0--1-1-1-1-0-0-0-0-1-1-1-1--2-3-2-3--------------------------| 


CHORUS: 
e|--------------------------------------------------------------------| 
B|--------------------------------------------------------------------| 
G|--------------------------------------------------------------------| 
D|-2-2-2-2----------2-2-2-2-------------------------------------------| 
A|-2-2-2-2--3-3-3-3-2-2-2-2-3-3-3-3--4-5-7-9--------------------------| 
E|-0-0-0-0--1-1-1-1-0-0-0-0-1-1-1-1--2-3-5-7--------------------------| 


CHORUS: 
e|--------------------------------------------------------------------| 
B|--------------------------------------------------------------------| 
G|--------------------------------------------------------------------| 
D|-2-2-2-2----------2-2-2-2-------------------------------------------| 
A|-2-2-2-2--3-3-3-3-2-2-2-2-3-3-3-3--4-5-4-5--------------------------| 
E|-0-0-0-0--1-1-1-1-0-0-0-0-1-1-1-1--2-3-2-3--------------------------| 


CHORUS: 
e|--------------------------------------------------------------------| 
B|--------------------------------------------------------------------| 
G|--------------------------------------------------------------------| 
D|-2-2-2-2----------2-2-2-2-------------------------------------------| 
A|-2-2-2-2--3-3-3-3-2-2-2-2-3-3-3-3--4-5-7-9--------------------------| 
E|-0-0-0-0--1-1-1-1-0-0-0-0-1-1-1-1--2-3-5-7--------------------------| 


VERSE: 
e|--------------------------------------------------------------------| 
B|--------------------------------------------------------------------| 
G|--------------------------------------------------------------------| 
D|--2-2-2-2-2-2--9--7-7-7--10-10-10-10-10-10--------------------------| 
A|--2-2-2-2-2-2--7--5-5-5--8--8--8--8--8--8---------------------------| 
E|--0-0-0-0-0-0-------------------------------------------------------| 


MONEY HAS THE REAL... PART 
e|--------------------------------------------------------------------| 
B|--------------------------------------------------------------------| 
G|--------------------------------------------------------------------| 
D|-2-2-2-2-5-5-5-5----------------------------------------------------| 
A|-2-2-2-2-3-3-3-3-5-5-5-5--------------------------------------------| 
E|-0-0-0-0---------3-3-3-3--------------X4----------------------------| 


VERSE: 
e|--------------------------------------------------------------------| 
B|--------------------------------------------------------------------| 
G|--------------------------------------------------------------------| 
D|--2-2-2-2-2-2--9--7-7-7--10-10-10-10-10-10--------------------------| 
A|--2-2-2-2-2-2--7--5-5-5--8--8--8--8--8--8---------------------------| 
E|--0-0-0-0-0-0-------------------------------------------------------| 


CHORUS: 
e|--------------------------------------------------------------------| 
B|--------------------------------------------------------------------| 
G|--------------------------------------------------------------------| 
D|-2-2-2-2----------2-2-2-2-------------------------------------------| 
A|-2-2-2-2--3-3-3-3-2-2-2-2-3-3-3-3--4-5-4-5--------------------------| 
E|-0-0-0-0--1-1-1-1-0-0-0-0-1-1-1-1--2-3-2-3--------------------------| 


CHORUS: 
e|--------------------------------------------------------------------| 
B|--------------------------------------------------------------------| 
G|--------------------------------------------------------------------| 
D|-2-2-2-2----------2-2-2-2-------------------------------------------| 
A|-2-2-2-2--3-3-3-3-2-2-2-2-3-3-3-3--4-5-7-9--------------------------| 
E|-0-0-0-0--1-1-1-1-0-0-0-0-1-1-1-1--2-3-5-7--------------------------| 


CHORUS: 
e|--------------------------------------------------------------------| 
B|--------------------------------------------------------------------| 
G|--------------------------------------------------------------------| 
D|-2-2-2-2----------2-2-2-2-------------------------------------------| 
A|-2-2-2-2--3-3-3-3-2-2-2-2-3-3-3-3--4-5-4-5--------------------------| 
E|-0-0-0-0--1-1-1-1-0-0-0-0-1-1-1-1--2-3-2-3--------------------------| 


CHORUS: 
e|--------------------------------------------------------------------| 
B|--------------------------------------------------------------------| 
G|--------------------------------------------------------------------| 
D|-2-2-2-2----------2-2-2-2-------------------------------------------| 
A|-2-2-2-2--3-3-3-3-2-2-2-2-3-3-3-3--4-5-7-9--------------------------| 
E|-0-0-0-0--1-1-1-1-0-0-0-0-1-1-1-1--2-3-5-7--------------------------| 


bridge
e|--------------------------------------------------------------------| 
B|--------------------------------------------------------------------| 
G|--------------------------------------------------------------------| 
D|-2------------------9--------------2--------------------------------| 
A|-2------------------7--------------2--------------------------------| 
E|-0---------------------------------0--------------------------------|


VERSE: 
e|--------------------------------------------------------------------| 
B|--------------------------------------------------------------------| 
G|--------------------------------------------------------------------| 
D|--2-2-2-2-2-2--9--7-7-7--10-10-10-10-10-10--------------------------| 
A|--2-2-2-2-2-2--7--5-5-5--8--8--8--8--8--8---------------------------| 
E|--0-0-0-0-0-0-------------------------------------------------------| 
            

comments powered by Disqus
↑ Back to top | Sick Of It All Tabs for Injustice System. Lyrics for acoustic guitar and electric guitar. Tablatures and chords are parodies/interpretations of the original songs. You may use it for private study, scholarship, research or language learning purposes only