» » »

Sick Of It All, Built To Last Bass tabs (ver.1)

Artists:  A B C D E F G H I J K L M N O P Q R S T U V W X Y Z # 

Built To Last Bass tabs (ver.1)

Sick Of It All Tabs
 Rating:
4/5 (4 votes)
Built To Last lessons Tabs too difficult? Try these video lessons and learn fast
1
                Album:	Built To Last


Tuning: E A D G

00:01 - 00:19

G|---------------------------------------------------------------------|
D|---------------------------------------------------------------------|
A|-------------------------------------------------------------5-5-5-5-|
E|-2-0-2-0-2-3-5--2-0-2-0-2-3-5--2-0-2-0-2-3-5--2-0-2-0-2-3-5----------|

00:20 - 00:39

G|-----------------------------------------------------------------------------------------------|
D|-2-2-2---------------2-2-2---------------2-2-2-------------------------------------------------|
A|--------4-4---4-4-4---------4-4---4-4-4---------4-4---4-4-4-4----------------------------------|
E|-----------------------------------------------------------------3-3-3-3-3-3-3-3-3-3-3-3-3-3-3-|

1:18 - 1:24

G|--------------------------------------------|
D|-----------------------4-4-4-4-4--4-4-4-4-4-|
A|--------------------------------------------|
E|-2-2-2-2-2--2-2-2-2-2-----------------------|

1:25 - 1:31

G |--------------------------------------|
D |--------------------------------------|
A |---------0-0-0-0-0--5-5-5-5-2-2-2-2-2-|
E |-2-2-2-2------------------------------|

G |--------------------------------------|
D |--------------------------------------|
A |---------0-0-0-0-0--5-5-5-5-5-3-2-----|
E |-2-2-2-2------------------------------|

1:32 - 1:38

G |--------------------------------------|
D |--------------------------------------|
A |---------0-0-0-0-0--5-5-5-5-2-2-2-2-2-|
E |-2-2-2-2------------------------------|

G |-------------------------------------|
D |----------------------------2-2-2----|
A |---------0-0-0-0-0--5-5-5-5----------|
E |-2-2-2-2-----------------------------|

very end:

G |---------|
D |---------|
A |-5-5-5-5-|
E |---------|
            
Submit corrections

comments powered by Disqus
↑ Back to top | Sick Of It All Bass for Built To Last. Lyrics for acoustic guitar and electric guitar. 1 Tablatures and chords are parodies/interpretations of the original songs. You may use it for private study, scholarship, research or language learning purposes only