>
 >
Triptych

Triptych Guitar Tabs

Siam Shade - Triptych chords, tabs, tablatures, lyrics

Guitar lessons | Add/correct | Request | Top 50 tabs Artists:  A B C D E F G H I J K L M N O P Q R S T U V W X Y Z 0-9

Triptych Guitar Tabs – Siam Shade

CD, Sheet music, Poster

Do you like Triptych? Share with your friends now
Bass TabsTabs
Song Name: Tryptych
Band Name: Siam Shade

here's the tab of triptych
pls rate this tab..... \m/


                       E   E   E   Q     Q     E   
E||-------|-------|-----------14--12----11----11--|
B||-------|-------|-------12----------------------|
G||-------|-------|--/11--------------------------|
D||-------|-------|-------------------------------|
A||-------|-------|-------------------------------|
E||-------|-------|-------------------------------|


   E   E   E   E    H            E   E   E   Q     Q     E   
--11--12--14-----------------|----------14--12----11----11--|
--------------12~---L--------|------12----------------------|
-----------------------------|--11--------------------------|
-----------------------------|------------------------------|
-----------------------------|------------------------------|
-----------------------------|------------------------------|


   E   E   E    E    H            E   E   E   Q     Q     E   
--11--12--14s--19~---L--------|----------14--12----11----11--|
------------------------------|------12----------------------|
------------------------------|--11--------------------------|
------------------------------|------------------------------|
------------------------------|------------------------------|
------------------------------|------------------------------|


   |-----3-----|     |-----3-----|                                 
   Q     Q     Q     Q     Q     Q         Q     E   H         E   
--11----12----14-----------------------|--------------------------|
--------------------12----14----14b----|---L----14--12------------|
---------------------------------------|----------------------11--|
---------------------------------------|--------------------------|
---------------------------------------|--------------------------|
---------------------------------------|--------------------------|


   Q     E   E    H             E   E   E   Q     Q     E   
--14--------12~---L--------|-----------14--12----11----11--|
---------------------------|-------12----------------------|
--------11-----------------|--/11--------------------------|
---------------------------|-------------------------------|
---------------------------|-------------------------------|
---------------------------|-------------------------------|


   E   E   E   E    H            E   E   E   Q     Q     E   
--11--12--14-----------------|----------14--12----11----11--|
--------------12~---L--------|------12----------------------|
-----------------------------|--11--------------------------|
-----------------------------|------------------------------|
-----------------------------|------------------------------|
-----------------------------|------------------------------|


   E   E   E    E    H            E   E   E   Q     Q     E   
--11--12--14s--19~---L--------|----------14--12----11----11--|
------------------------------|------12----------------------|
------------------------------|--11--------------------------|
------------------------------|------------------------------|
------------------------------|------------------------------|
------------------------------|------------------------------|


   |-----3-----|     |-----3-----|                                
   Q     Q     Q     Q     Q     Q         Q     E   H        E   
--11----12----14-----------------------|-------------------------|
--------------------12----14----14b----|---L----14--12--------L--|
---------------------------------------|-------------------------|
---------------------------------------|-------------------------|
---------------------------------------|-------------------------|
---------------------------------------|-------------------------|


   Q     E   Q     E      E  X X S. E  S S E   E  S S  E   
--15--------17--------|--19---------9---------11----------|
----------------------|------0-5-7-----0-7-9------0-9-10--|
--------16--------16--|-----------------------------------|
----------------------|-----------------------------------|
----------------------|-----------------------------------|
----------------------|-----------------------------------|


   E  S  S  E   E  S  S  E   Q       S S E  E  S S E   E  S S  E   
--12-----------14-----------16----|---------9---------11----------|
------0-10-12------0-12-14--------|--0-5-7-----0-7-9------0-9-10--|
----------------------------------|-------------------------------|
----------------------------------|-------------------------------|
----------------------------------|-------------------------------|
----------------------------------|-------------------------------|


   E  S  S  E   E  S  S  E   Q       S S E  E  S S E   E  S S  E   
--12-----------14-----------16----|---------9---------11----------|
------0-10-12------0-12-14--------|--0-5-7-----0-7-9------0-9-10--|
----------------------------------|-------------------------------|
----------------------------------|-------------------------------|
----------------------------------|-------------------------------|
----------------------------------|-------------------------------|


   E  S  S  E   E  S  S  E   Q       S S E  E  S S E   E  S S  E   
--12-----------14-----------16----|---------9---------11----------|
------0-10-12------0-12-14--------|--0-5-7-----0-7-9------0-9-10--|
----------------------------------|-------------------------------|
----------------------------------|-------------------------------|
----------------------------------|-------------------------------|
----------------------------------|-------------------------------|


                                     |----3----|    |-----3----|      
   E  S  S  E   E  S  S  E   Q       Q    Q    Q    Q    Q     Q      
--12-----------14-----------16----|----------------------------------|
------0-10-12------0-12-14--------|----------------------------------|
----------------------------------|-----------------8----9----11~----|
----------------------------------|------------9---------------------|
----------------------------------|-------9--------------------------|
----------------------------------|--7-------------------------------|


                                                          \1/           
   H.            E  S S     E.  E  E.  Q.     E     Q     H.            
------------------------|------------------------|---------------------|
------------------------|------------------------|---------------------|
---L-------------L--9-8-|-------8--9---L---------|---------------------|
------------------------|--11-----------------9--|--9\----7------------|
------------------------|------------------------|---------------------|
------------------------|------------------------|---------------------|


  |----3----|    |-----3----|                  |-----3-----|     
  Q    Q    Q    Q    Q     Q        H         Q     Q     Q     
---------------------------------|------------------------11----|
---------------------------12----|---L--------12----14----------|
-----------------8----9----------|------------------------------|
------------9--------------------|------------------------------|
-------9-------------------------|------------------------------|
--7------------------------------|------------------------------|


   \1/                                                              
                              |------3------|     |-----3-----|     
   H         E.   E   E.      Q     Q       Q     Q     Q     Q     
--11--------11---12--14---|--14------------------------------------|
--------------------------|--------14br-----L----12----14----12----|
--------------------------|----------------------------------------|
--------------------------|----------------------------------------|
--------------------------|----------------------------------------|
--------------------------|----------------------------------------|


    Q     H.              E   E  E  E  Q     E  E   
-----------------------|---------7--9--9b----7--9--|
--/16~-----------------|-----/9--------------------|
-----------------------|---------------------------|
-----------------------|---------------------------|
-----------------------|---------------------------|
-----------------------|---------------------------|


  E   E   E   E   E   Q       E      E   E   E    E   H         
--L--11--12--13--14--------------|-----------------------------|
---------------------14br----12--|--14--12--14b--12---L--------|
---------------------------------|-----------------------------|
---------------------------------|-----------------------------|
---------------------------------|-----------------------------|
---------------------------------|-----------------------------|


   |---3---|  |--3--|  |---3--|                                     
   E   E   E  E  E  E  E   E  E  S S. S.    E  S S S S E  H         
--11--14--11--7--------------------------|-------------------------|
-----------------7-----7--12--7----------|-------------------------|
--------------------9------------9-8-----|--6--8-9-8-6-------------|
--------------------------------------9--|-------------9-----------|
-----------------------------------------|-------------------------|
-----------------------------------------|----------------7--------|


  |--3--|  |---3--|  |---3--|   |---3---|   
  E  E  E  E  E   E  E   E  E   E   E   E   
-------------------------------------------|
------------------------11-----12------11--|
-----------9-----11---------8------11------|
-----9---------------9---------------------|
--------7-----9----------------------------|
--7----------------------------------------|


  |---3---|  |---3---|   |-----3-----|                                   
  E   E   E  E   E   E   Q     Q     Q        Q     E   Q     E   Q      
-------------9--11--12--14----12----11----|--14\-------12\-------11\----|
--9--11--12-------------------------------|--14\-------12\-------12\----|
------------------------------------------|-----------------------------|
------------------------------------------|-----------------------------|
------------------------------------------|-----------------------------|
------------------------------------------|-----------------------------|


  E   Q.       S  S S  S  S S S S     S  S S S S S S S S S S S S S S S  
-----12\------12-12-0-11-11-0-9-0-|--11-11-0-7-7-0-9-0-6-6-0-7-7-0-4-0-|
-----12\--------------------------|------------------------------------|
----------------------------------|------------------------------------|
----------------------------------|------------------------------------|
----------------------------------|------------------------------------|
----------------------------------|------------------------------------|


  S S S S E  E  S.  E.    E    S.  
--6-6-0-0-0--4--0/-16\---(0)--(0)-|
----------------------------------|
----------------------------------|
----------------------------------|
----------------------------------|
----------------------------------|


  S  S  S S  S  S S  S  S S  S  S S  S  S S   
---------------------------------------------|
--4h-5p-4---------4h-5p-4---------4h-5p-4----|
----------6p-4h-6---------6p-4h-6---------6p-|
---------------------------------------------|
---------------------------------------------|
---------------------------------------------|


                       \2/                                              
                                                          |--3--|       
  S  S S  S  S S  S  S E   Q.        E  Q    E   E   S S  S  S  S S  S  
----------------------------------|-----7----7p--6p--5-----------------|
-------4h-5p-4---------4---L------|--L----------------------------4h-5-|
--4h-6---------6p-4h-6------------|--------------------6p-3h-4h-5------|
----------------------------------|--L---------------------------------|
----------------------------------|------------------------------------|
----------------------------------|------------------------------------|


                                   T       T       T       T       T       T  
  |--3--|   |---3--|                                                          
  E  E  E   E  E   E  H            S S  S  S S  S  S S  S  S S  S  S S  S  S  
-----4-------------------------|---------------------------------------------|
--L-----5p--4------------------|--12-0h-5-11-0h-7-12-0h-5-11-0h-7-12-0h-5-11-|
---------------4h--6-----------|---------------------------------------------|
----------------------4--------|---------------------------------------------|
-------------------------------|---------------------------------------------|
-------------------------------|---------------------------------------------|


        T       T       T       T       T     
  S  S  S S  S  S S  S  S S  S  S S  S  S S   
---------------------------------------------|
--0h-7-17-5h-7-16-5h-7-12-0h-5-11-0h-7-12-0h-|
---------------------------------------------|
---------------------------------------------|
---------------------------------------------|
---------------------------------------------|


     T       T       T       T       T          T             T               
  S  S S  S  S S  S  S S  S  S S  S  S S  S     S S  S S  S S S S  H          
--------------------------------------------|--------------------------------|
--5-11-0h-7-12-0h-5-11-0h-7-12-0h-5-11-0h-7-|--12-5p-0-5p-0-2-5-0h-5/--------|
--------------------------------------------|--------------------------------|
--------------------------------------------|--------------------------------|
--------------------------------------------|--------------------------------|
--------------------------------------------|--------------------------------|


   \2/           T       T       T       T  
   S  S S S S S  S S  S  S S  S  S S  S  S  
-------------------------------------------|
-------------------------------------------|
-------------------------------------------|
--------------------------------14-7h-9----|
------------------------14-7h-9---------14-|
--14--L-L-L-L-L-14-7h-9--------------------|


        T       T       T       T       T     
  S  S  S S  S  S S  S  S S  S  S S  S  S S   
---------------------------------------------|
---------------12-5h-7-14-5h-7-12-5h-7-19-5h-|
---------------------------------------------|
-------14-7h-9-------------------------------|
--7h-9---------------------------------------|
---------------------------------------------|


      T        T        T        T        T        
  |----3----|  |-3|  |--|  |-----3-----|           
  E   E  S  S  E  S  S  E  S  S  E  S  S  E  S  S  
--------------------------------------------------|
--7--12--5h-7-14--5h-7-12--5h-7-19--5h-7-12--5h-7-|
--------------------------------------------------|
--------------------------------------------------|
--------------------------------------------------|
--------------------------------------------------|


   T      T      T      T                                              
   |---3--|  |---3--|                                                  
   E  E   E  E   E  E   Q       E     E      Q.       Q.       Q       
------------------------------------/18--|--18b------18b------18b~----|
--12--7--11--7--12--7--11S----(18)-------|----------------------------|
-----------------------------------------|----------------------------|
-----------------------------------------|----------------------------|
-----------------------------------------|----------------------------|
-----------------------------------------|----------------------------|


             |-----3-----|                                   
   H         Q     Q     Q        H          E   E   E   E   
---L--------19----18----16----|--19b~--------L--19--18------|
------------------------------|-------------------------19--|
------------------------------|-----------------------------|
------------------------------|-----------------------------|
------------------------------|-----------------------------|
------------------------------|-----------------------------|


   H.           E   S  S     S  S  S  S  S  S  S  S  S  S  S  S  S  S  S  S  
-------------------------|--19-19-19-14-------19-19-19-14-------19-19-19-14-|
---L------------L--14-17-|--------------17-14-------------17-14-------------|
-------------------------|--------------------------------------------------|
-------------------------|--------------------------------------------------|
-------------------------|--------------------------------------------------|
-------------------------|--------------------------------------------------|


   S  S  S  S  S  S  S  S  S  S  S  S  S  S  S  S  
--------19-19-19-14-------19-19-19-14-------18-18-|
--17-14-------------17-14-------------17-14-------|
--------------------------------------------------|
--------------------------------------------------|
--------------------------------------------------|
--------------------------------------------------|


   S  S  S  S  S  S  S  S  S  S  S  S  S  S  S  S  
--18-14-------18-18-18-14-------18-18-18-14-------|
--------17-14-------------17-14-------------17-14-|
--------------------------------------------------|
--------------------------------------------------|
--------------------------------------------------|
--------------------------------------------------|


   S  S  S  S  S  S  E  H         
--18-18-18-14-------18--L--------|
--------------17-14--------------|
---------------------------------|
---------------------------------|
---------------------------------|
---------------------------------|


   S  S  S  S  S  S  S  S  S  S  S  S  S  S  S  S  
--19-18----19-18----18-16----18-16----16-14----16-|
--------16-------16-------14-------14-------12----|
--------------------------------------------------|
--------------------------------------------------|
--------------------------------------------------|
--------------------------------------------------|


   S  S  S  S  S  S  S  S  S  S  S  S  S  S  S  S  
--14----18-16----18-16----19-18----19-18----19-18-|
-----12-------14-------14-------16-------16-------|
--------------------------------------------------|
--------------------------------------------------|
--------------------------------------------------|
--------------------------------------------------|


   S  S  S  S  S  S  S  S  S  S  S  S  S  S  S  S  
--19-18----19-18----18-16----18-16----16-14----16-|
--------16-------16-------14-------14-------12----|
--------------------------------------------------|
--------------------------------------------------|
--------------------------------------------------|
--------------------------------------------------|


   S  S  S  S  S  S  S  S  S  S  S  S  S  S  S  S     Q.        H          E   
--14----18-16----18-16----19-18----19-18----19-18-|--19b~------19b~--------L--|
-----12-------14-------14-------16-------16-------|---------------------------|
--------------------------------------------------|---------------------------|
--------------------------------------------------|---------------------------|
--------------------------------------------------|---------------------------|
--------------------------------------------------|---------------------------|


   |---3---|   |---3---|   |---3---|   |---3---|   
   E   E   E   E   E   E   E   E   E   E   E   E   
--19--18--16--------------------------------------|
--------------19--17--16--19--17--16--------------|
--------------------------------------18--16--15--|
--------------------------------------------------|
--------------------------------------------------|
--------------------------------------------------|


   |---3---|   |---3---|   |---3---|   |---3---|                              
   E   E   E   E   E   E   E   E   E   E   E   E      Q     E   E   H         
--------------------------------------------------|--16----16--14---L--------|
----------------------------------17--16--19--17--|--------------------------|
----------16--15--18--16--18--16------------------|--------------------------|
--16--14------------------------------------------|--------------------------|
--------------------------------------------------|--------------------------|
--------------------------------------------------|--------------------------|


    E   E   E   Q     Q     E      E   E   E   E    H         
-----------14--12----11----11--|--11--12--14-----------------|
-------12----------------------|--------------12~---L--------|
--/11--------------------------|-----------------------------|
-------------------------------|-----------------------------|
-------------------------------|-----------------------------|
-------------------------------|-----------------------------|


   E   E   E   Q     Q     E      E   E   E    E    H         
----------14--12----11----11--|--11--12--14s--19~---L--------|
------12----------------------|------------------------------|
--11--------------------------|------------------------------|
------------------------------|------------------------------|
------------------------------|------------------------------|
------------------------------|------------------------------|


                                  |-----3-----|     |-----3-----|      
   E   E   E   Q     Q     E      Q     Q     Q     Q     Q     Q      
----------14--12----11----11--|--11----12----14-----------------------|
------12----------------------|--------------------12----14----14b----|
--11--------------------------|---------------------------------------|
------------------------------|---------------------------------------|
------------------------------|---------------------------------------|
------------------------------|---------------------------------------|


   Q     E   H         E      Q     E   E    H         
--------------------------|--14--------12~---L--------|
---L----14--12------------|---------------------------|
----------------------11--|--------11-----------------|
--------------------------|---------------------------|
--------------------------|---------------------------|
--------------------------|---------------------------|


    E   E   E   Q     Q     E      E   E   E   E    H         
-----------14--12----11----11--|--11--12--14-----------------|
-------12----------------------|--------------12~---L--------|
--/11--------------------------|-----------------------------|
-------------------------------|-----------------------------|
-------------------------------|-----------------------------|
-------------------------------|-----------------------------|


   E   E   E   Q     Q     E      E   E   E    E    H         
----------14--12----11----11--|--11--12--14s--19~---L--------|
------12----------------------|------------------------------|
--11--------------------------|------------------------------|
------------------------------|------------------------------|
------------------------------|------------------------------|
------------------------------|------------------------------|


                                  |-----3-----|     |-----3-----|      
   E   E   E   Q     Q     E      Q     Q     Q     Q     Q     Q      
----------14--12----11----11--|--11----12----14-----------------------|
------12----------------------|--------------------12----14----14b----|
--11--------------------------|---------------------------------------|
------------------------------|---------------------------------------|
------------------------------|---------------------------------------|
------------------------------|---------------------------------------|


   Q     E   H        E      Q     E   Q     E      Q    H.            
-------------------------|--15--------17--------|--19-----------------|
---L----14--12--------L--|----------------------|---------------------|
-------------------------|--------16--------16--|---------------------|
-------------------------|----------------------|---------------------|
-------------------------|----------------------|---------------------|
-------------------------|----------------------|---------------------|


---------------|---------------|---------------|---------------|---------------|
---------------|---------------|---------------|---------------|---------------|
---------------|---------------|---------------|---------------|---------------|
---------------|---------------|---------------|---------------|---------------|
---------------|---------------|---------------|---------------|---------------|
---------------|---------------|---------------|---------------|---------------|


---------------|---------------|---------------|---------------|---------------|
---------------|---------------|---------------|---------------|---------------|
---------------|---------------|---------------|---------------|---------------|
---------------|---------------|---------------|---------------|---------------|
---------------|---------------|---------------|---------------|---------------|
---------------|---------------|---------------|---------------|---------------|


                   W                   H         H         
---------------|--------------------|---------------------|
---------------|--------------------|---------------------|
---------------|--11----------------|--L--------13--------|
---------------|--------------------|---------------------|
---------------|---9----------------|--L--------11--------|
---------------|--------------------|---------------------|


   Q    E.   Q     Q     S    S  E.  E   E   Q    Q       Q.     Q.     Q     
---------------------------|---------------------------|---------------------|
---------------------------|---------------------------|---------------------|
--14----L---14----14----14-|--L-14---L--13--11----9----|--8------------------|
---------------------------|---------------------------|---------9------7----|
--12----L---12----12----12-|--L-12---L--11---9----7----|--6------------------|
---------------------------|---------------------------|---------7------5----|


  H        E  Q.        W                   W                 
---------------------|-------------------|-------------------|
---------------------|-------------------|-------------------|
---------------------|-------------------|-------------------|
--L--------L--7------|--7----------------|--L----------------|
---------------------|-------------------|-------------------|
--L--------L--5------|--5----------------|--L----------------|


  Q     Q.      Q.         Q.      H        E     Q     Q.      Q.      
-----------------------|-----------------------|-----------------------|
-----------------------|-----------------------|-----------------------|
-------14------16------|--18------16--------L--|-------14------16------|
-----------------------|-----------------------|-----------------------|
-------12------14------|--16------14--------L--|-------12------14------|
-----------------------|-----------------------|-----------------------|


   Q     E   Q.     Q        Q.      E.   E.  Q       Q.     E.  E.  Q     
-------------------------|--12------11---11---9----|--9------7---7---5----|
-------------------------|-------------------------|----------------------|
--18----18--20-----------|---9-------8----8---6----|--6------4---4---2----|
-------------------------|-------------------------|----------------------|
--16----16--18-----------|-------------------------|----------------------|
-------------------------|-------------------------|----------------------|


                        |----3----|              
  Q.     Q.     Q       Q    Q    Q    H         
--4------5------5----|--5----5----5----5--------|
---------------------|--------------------------|
--1------2------2----|--2----2----2----2--------|
---------------------|--------------------------|
---------------------|--------------------------|
---------------------|--------------------------|


            T       T        T       T        T  
  E   T  T  S  E.   S  T  T  S  E.   S  S  T  T  
-----12-16-17-16---17-12-16-17-16---17-12-16-17-|
------------------------------------------------|
------------------------------------------------|
------------------------------------------------|
------------------------------------------------|
------------------------------------------------|


        T                                  T       T       T       T       T  
   E.   S  S  S  S  S H           E  T  T  S  E.   S T  T  S  E.   S S  T  T  
--16---17-16-12-11-------------|-----7-11-12-11---12-7-11-12-11---12-7-11-12-|
-------------------12-L--------|---------------------------------------------|
-------------------------------|---------------------------------------------|
-------------------------------|---------------------------------------------|
-------------------------------|---------------------------------------------|
-------------------------------|---------------------------------------------|


        T                         T           T       T        T     T       
   E.   S  E  S  S  Q    E  S  T  T     Q     S S  S  S  E  T  T  S  S  E.   
--11---12-11--7---------------------|---------------------------------------|
----------------10--L-------9-10-12-|--10----12-9-10-12-10--9-12-10-12-10---|
------------------------------------|---------------------------------------|
------------------------------------|---------------------------------------|
------------------------------------|---------------------------------------|
------------------------------------|---------------------------------------|


     T     T                                                              
                        |-----3----|       |----3----|    |----3----|     
  T  T  T  T  Q     E   Q    Q     Q       Q    Q    Q    Q    Q    Q     
----------------------------------------|--------------------------------|
--9-12-10-12-------10-------------------|--------------------------------|
-------------11--------11----9----11----|--9----8----9----8----6----8----|
----------------------------------------|--------------------------------|
----------------------------------------|--------------------------------|
----------------------------------------|--------------------------------|


  |----3----|                                                  
  Q    Q    Q    E.  S Q       E   E   E   E   E   E   E   E   
----------------------------|-----12--12--11--11--12--12--11--|
----------------------------|---------------------------------|
--6----8----6----6---4-L----|------9---9---8---8---9---9---8--|
----------------------------|---------------------------------|
----------------------------|---------------------------------|
----------------------------|---------------------------------|


   E  E  E  E  Q    Q       E   E   E   E   E   E   E   E   
--11--9--9--7--7---------|-----12--12--11--11--12--12--14--|
-------------------------|---------------------------------|
---8--6--6--4--4---------|------9---9---8---8---9---9--11--|
-------------------------|---------------------------------|
-------------------------|---------------------------------|
-------------------------|---------------------------------|


   E   E   E   Q.     Q        E   S  S  E   S  S  S  S  S  S  S  S  S  S  
--14--16--16--17-----------|--11--11-11-11--12-12-12-12-12-12-12-12-12-12-|
---------------------------|----------------------------------------------|
--11--13--13--14-----------|---8---8--8--8---9--9--9--9--9--9--9--9--9--9-|
---------------------------|----------------------------------------------|
---------------------------|----------------------------------------------|
---------------------------|----------------------------------------------|


   S  S  S  S  S  S  S  S  S  S  S  S  S  S  S  S  
--14-14-14-14-14-14-16-16-16-16-16-16-17-17-17-17-|
--------------------------------------------------|
--11-11-11-11-11-11-13-13-13-13-13-13-14-14-14-14-|
--------------------------------------------------|
--------------------------------------------------|
--------------------------------------------------|


   S  S  S  S  S  S  S  S  S  S  S  S  S  S  S  S  
--19-19-19-19-19-19-19-19-19-19-19-19-19-19-19-19-|
--------------------------------------------------|
--16-16-16-16-16-16-16-16-16-16-16-16-16-16-16-16-|
--------------------------------------------------|
--------------------------------------------------|
--------------------------------------------------|


   S  S  S  S  S  S  S  S  S  S  S  S  S  S  E       H         E   E   E   E   
--19-19-19-19-19-19-19-19-19-19-19-19-19-19-12b--|---L--------14--12--11------|
-------------------------------------------------|------------------------12--|
--16-16-16-16-16-16-16-16-16-16-16-16-16-16------|----------------------------|
-------------------------------------------------|----------------------------|
-------------------------------------------------|----------------------------|
-------------------------------------------------|----------------------------|


   H         E   E   E   E        Q      E  E  E   S S E  E   
-----------------------------|-------------------------------|
---L--------14--12-----------|-------------------------------|
--------------------11--11/--|--(16)----\9--8--9--11-9-8-----|
-----------------------------|----------------------------9--|
-----------------------------|-------------------------------|
-----------------------------|-------------------------------|


               SH                                           
  E   E  E     Q.      E   E      E  E   E   E  E  Q    E   
------------------------------|----------------------------|
------------------------------|----------------------------|
-----11-----<>13~-------------|------9--11-----------------|
--9------9----------------13--|---L---------11--L--9----7--|
------------------------------|----------------------------|
------------------------------|----------------------------|


                                              SH       
  E  E  E  E  E  E  E  E     E  E  E  E  E    Q.       
--------------------------|---------------------------|
--------------------------|---------------------------|
--------------------------|---------------------------|
--L--6--7--9--7--6--------|---------------------------|
--------------------7--6--|--L--7--9--7--6------------|
--------------------------|-----------------<>7~------|


             SH                                        PH  
  E  E  E    Q.      Q       E  E  E   E  E   E  E     E   
--------------------------|-------------------------------|
--------------------------|--------9--11-----12-----<>11--|
--------------------------|-----8-------------------------|
--------------------------|--9----------------------------|
--------------------------|-------------------------------|
--5--7--5--<>7~------L----|-------------------------------|


                    PH                                    
   Q    E  E  E     Q.        E  E  E   E  E   E  E   E   
---------------------------|-----------------------------|
---L----------9--<>11------|--------9--11-----12-----14--|
--------8--8---------------|-----8-----------------------|
---------------------------|--9--------------------------|
---------------------------|-----------------------------|
---------------------------|-----------------------------|


                              |-----3-----|     |----3----|     
  E   E  E   H         E      Q     Q     Q     Q    Q    Q     
-----11-------------------|------------------------------------|
------------12--------12--|--12----10----10----10----8----8----|
--------------------------|------------------------------------|
--------------------------|------------------------------------|
--------------------------|------------------------------------|
--------------------------|------------------------------------|


  |----3----|                                                 
  Q    Q    Q    S S S E.  E     S  S S S E  E  S S S E.  E   
------------------------------|------------------------------|
--8----7----8----7-8-7-----7--|------------------------------|
-----------------------9------|--9-11-9-7-L--9--7-9-7-6---7--|
------------------------------|------------------------------|
------------------------------|------------------------------|
------------------------------|------------------------------|


                                    |--3--|  |--3--|  |--3--|  |--3--|   
  S S E  S S S S S S S S S S S S    E  E  E  E  E  E  E  E  E  E  E  E   
---------------------------------|--------------------------------------|
---------------------------------|--------------------------------------|
--6-7-6--2-4-2-4-2-4-2-4-2-4-2-4-|--6--4--6--4--6--4--6--4--6--4--6--4--|
---------------------------------|--------------------------------------|
---------------------------------|--------------------------------------|
---------------------------------|--------------------------------------|


  S. T  T  S. T  S  S S  T  S. T  T  S. T  S  S S  T   
------------------------------------------------------|
--4--0h-2h-4--0h-2h-4-0h-2h-4--0h-2h-4--0h-2h-4-0h-4h-|
------------------------------------------------------|
------------------------------------------------------|
------------------------------------------------------|
------------------------------------------------------|


  S. T  T  S. T  S  S S  T  S. T  T  S. T  S  S S  T   
------------------------------------------------------|
--5--0h-4h-5--0h-4h-5-0h-4h-5--0h-4h-5--0h-4h-5-0h-5h-|
------------------------------------------------------|
------------------------------------------------------|
------------------------------------------------------|
------------------------------------------------------|


  S. T  T  S. T  S  S S  T  S. T  T  S. T  S  S S  T   
------------------------------------------------------|
--7--0h-5h-7--0h-5h-7-0h-5h-7--0h-5h-7--0h-5h-7-0h-7h-|
------------------------------------------------------|
------------------------------------------------------|
------------------------------------------------------|
------------------------------------------------------|


  S. T  T  S. T  S  S S  T   S.T  T   S.T  S   S S   T   
--------------------------------------------------------|
--9--0h-7h-9--0h-7h-9-0h-7h-11-0h-7h-11-0h-7h-11-0h-11h-|
--------------------------------------------------------|
--------------------------------------------------------|
--------------------------------------------------------|
--------------------------------------------------------|


   S.T   T   S.T   S   S S   T   S.T   T   S.T   S   S S   T   
--------------------------------------------------------------|
--12-0h-11h-12-0h-11h-12-0h-12h-14-0h-12h-14-0h-12h-14-0h-14h-|
--------------------------------------------------------------|
--------------------------------------------------------------|
--------------------------------------------------------------|
--------------------------------------------------------------|


   S.T   T   S.T   S   S S   T   S.T   T   S.T   S   S S   T   
--------------------------------------------------------------|
--16-0h-14h-16-0h-14h-16-0h-14h-17-0h-16h-17-0h-16h-17-0h-17h-|
--------------------------------------------------------------|
--------------------------------------------------------------|
--------------------------------------------------------------|
--------------------------------------------------------------|


   3      |--|   3      |---3---|   3                                         
   E   S  S  E   E   S  E   E   E   H             E   E   E   Q     Q     E   
--19--16------------19-21----------21--------|-----------14--12----11----11--|
---------17-----17---------19----------------|-------12----------------------|
------------16-----------------18------------|--/11--------------------------|
---------------------------------------------|-------------------------------|
---------------------------------------------|-------------------------------|
---------------------------------------------|-------------------------------|


   E   E   E   E    H            E   E   E   Q     Q     E   
--11--12--14-----------------|----------14--12----11----11--|
--------------12~---L--------|------12----------------------|
-----------------------------|--11--------------------------|
-----------------------------|------------------------------|
-----------------------------|------------------------------|
-----------------------------|------------------------------|


   E   E   E    E    H             E   E   E   Q     Q     E   
--11--12--14s--19~---L--------|-----------14--12----11----11--|
------------------------------|-------12----------------------|
------------------------------|--/11--------------------------|
------------------------------|-------------------------------|
------------------------------|-------------------------------|
------------------------------|-------------------------------|


   |-----3-----|     |-----3-----|                                 
   Q     Q     Q     Q     Q     Q         Q     E   H         E   
--11----12----14-----------------------|--------------------------|
--------------------12----14----14b----|---L----14--12------------|
---------------------------------------|----------------------11--|
---------------------------------------|--------------------------|
---------------------------------------|--------------------------|
---------------------------------------|--------------------------|


   Q     E   E   H             E   E   E   Q     Q     E   
--14--------12---L--------|-----------14--12----11----11--|
--------------------------|-------12----------------------|
--------11----------------|--/11--------------------------|
--------------------------|-------------------------------|
--------------------------|-------------------------------|
--------------------------|-------------------------------|


   E   E   E   E    H             E   E   E   Q     Q     E   
--11--12--14-----------------|-----------14--12----11----11--|
--------------12~---L--------|-------12----------------------|
-----------------------------|--/11--------------------------|
-----------------------------|-------------------------------|
-----------------------------|-------------------------------|
-----------------------------|-------------------------------|


   E   E   E   E   E   Q     E      Q     E   H        E   
--11--12--14--19---L--21----21b--|--L----21--19--------L--|
---------------------------------|------------------------|
---------------------------------|------------------------|
---------------------------------|------------------------|
---------------------------------|------------------------|
---------------------------------|------------------------|


   H.            E   E      E    E   E    E   E    E   E    E   
---L------------19--19--|--19\--14--14/--16--16\--12--12/--14--|
------------------------|--------------------------------------|
------------------------|--------------------------------------|
------------------------|--------------------------------------|
------------------------|--------------------------------------|
------------------------|--------------------------------------|


                               |---3---|   
   E   E   E   E   S  S  S  S  E   E   E   
--14--11--11--12--14-12-14-12-14--12--14--|
------------------------------------------|
------------------------------------------|
------------------------------------------|
------------------------------------------|
------------------------------------------|


   T        T        T           T           T           
   S  S  S  S  S  S  S  S  S  S  T  T  T  T  S  S  S  S  
--19-14-12-19-14-12-19-14-12-11-------------19-14-12-11-|
--------------------------------19-14-12-11-------------|
--------------------------------------------------------|
--------------------------------------------------------|
--------------------------------------------------------|
--------------------------------------------------------|


   T           T           T           T                       T     
   T  T  T  T  S  S  S  S  T  T  T  T  S  S  S  S  T  T  T  T  S  S  
--------------19-14-12-11-------------19-14-12-11-------------19-14-|
--19-14-12-11-------------19-14-12-11-------------19-14-12-11-------|


      T        T           T           T           T           
   S  S  S  S  S  S  S  S  T  T  T  T  S  S  S  S  T  T  T  T  
--12-19-14-12-19-14-12-11-------------19-14-12-11-------------|
--------------------------19-14-12-11-------------19-14-12-11-|
--------------------------------------------------------------|
--------------------------------------------------------------|
--------------------------------------------------------------|
--------------------------------------------------------------|


   T           T           T           T                                     
   S  S  S  S  T  T  T  T  S  S  S  S  S  S  Q       Q.      Q      Q    E   
--19-14-12-11-------------19-14-12-11-------------|--9b------9b-------------|
--------------19-14-12-11-------------19-12-12----|-------------------------|
--------------------------------------------------|----------------11----7--|
--------------------------------------------------|-------------------------|
--------------------------------------------------|-------------------------|
--------------------------------------------------|-------------------------|


                          PM PM PM PM                   
                                       |-----3----|     
   Q.     H        E      E  E  E  E   Q    Q     Q     
----------------------|---------------------9----10----|
----------------------|------------8--10---------------|
----------------------|---------7----------------------|
--11------9--------L--|------9-------------------------|
----------------------|--10----------------------------|
----------------------|--------------------------------|


   E   Q       E  H            E   E   E   Q     Q     E   
--12-----------------------|----------14--12----11----11--|
------12br----10--L--------|------12----------------------|
---------------------------|--11--------------------------|
---------------------------|------------------------------|
---------------------------|------------------------------|
---------------------------|------------------------------|


   E   Q       E   H            E   E   E   Q     Q     E   
---L------------------------|----------14--12----11----11--|
------14br----12---L--------|------12----------------------|
----------------------------|--11--------------------------|
----------------------------|------------------------------|
----------------------------|------------------------------|
----------------------------|------------------------------|


  E   E     E   E  H            E   E   E   Q     Q     E   
--9--(9)--/21--19--L--------|----------14--12----11----11--|
-----12---------------------|------12----------------------|
----------------------------|--11--------------------------|
----------------------------|------------------------------|
----------------------------|------------------------------|
----------------------------|------------------------------|


   |-----3-----|     |-----3-----|                                
   Q     Q     Q     Q     Q     Q        Q     E   H         E   
--11----12----14-----------------------|-------------------------|
--------------------12----14----14b----|--L----14--12------------|
---------------------------------------|---------------------11--|
---------------------------------------|-------------------------|
---------------------------------------|-------------------------|
---------------------------------------|-------------------------|


   Q     E   H         E      Q      E   H         E   
--14--------12------------|---------------------------|
--------------------------|--14b----14--12------------|
--------11------------11--|-----------------------11--|
--------------------------|---------------------------|
--------------------------|---------------------------|
--------------------------|---------------------------|


   Q     E   H         E      Q      E   H        E   
--14--------12------------|--------------------------|
--------------------------|--14b----14--12--------L--|
--------11------------11--|--------------------------|
--------------------------|--------------------------|
--------------------------|--------------------------|
--------------------------|--------------------------|


   |-----3-----|     |-----3-----|                                 
   Q     Q     Q     Q     Q     Q        H         Q      E   E   
--------------15----------------17----|--19\-------------/19--19--|
--12----15----------14----17----------|--19\-------------/19--19--|
--------------------------------------|--16\-------------/16--16--|
--------------------------------------|---------------------------|
--------------------------------------|---------------------------|
--------------------------------------|---------------------------|


   Q    H.                             
---L-----------------|---------------||
---L-----------------|---------------||
---L-----------------|---------------||
---------------------|---------------||
---------------------|---------------||
---------------------|---------------||




Duration Legend
---------------
W - whole
H - half
Q - quarter
E - 8th
S - 16th
T - 32nd
X - 64th
. - note dotted
|-n-|  - n-tuplets


Tablature Legend
----------------
L - tied note
x - dead note
g - grace note
(n) - ghost note
> - accentuded note
NH - natural harmonic
AH - artificial harmonic
TH - tapped harmonic
SH - semi harmonic
PH - pitch harmonic
h - hammer on
p - pull off
b - bend
br - bendRelease
pb - preBend
pbr - preBendRelease
brb - bendReleaseBend
\n/ - tremolo bar dip
\n - tremolo bar dive
-/n - tremolo bar Release up
/n\ - tremolo bar inverted dip
/n - tremolo bar return
-\n - tremolo bar Release down
S - shift slide
s - legato slide
/ -  slide into from below or out of upwards
\ -  slide into from above or out of downwards
~ - vibrato
W - wide vibrato
tr - trill
TP - tremolo picking
T - tapping
S - slap
P - pop
< - fade in
^ - brush up
v - brush down





Comments


Popular Siam Shade tabs & chords
Triptych Bass Tabs
1 3 Junjou Na Kanjou Chords
No Junjou Na Kanjou Chords
Junjou Na Kanjou Tabs
1 3 Junjou Na Kanjou Ukulele
No Junjou Na Kanjou Ukulele


Song lyrics



↑ Back to top | Tablatures and chords are parodies/interpretations of the original songs. You may use it for private study, scholarship, research or language learning purposes only
© 2014 AZChords.com Contact us | Privacy policy | DMCA | Add/correct tabs | Request tabs | Top 50 tabs