>
 >
Junjou Na Kanjou

Junjou Na Kanjou Guitar Tabs

Siam Shade - Junjou Na Kanjou chords, tabs, tablatures, lyrics

Guitar lessons | Add/correct | Request | Top 50 tabs Artists:  A B C D E F G H I J K L M N O P Q R S T U V W X Y Z 0-9

Junjou Na Kanjou Guitar Tabs – Siam Shade

CD, Sheet music, Poster

Do you like Junjou Na Kanjou? Share with your friends now
Tabs
[Siam Shade]  Sanbun no Ichi-Junjou na Kanjou
Composed by Siam Shade - OST Rurouni Kenshin.

----------------------------------------------------------------------------------------
Created at 26 Nov 2001 version 1
please be patient I'm currently tabbing the whole song so it takes time.
----------------------------------------------------------------------------------------

This tab can be found at :

E------------------------------------------------|
B------------------------------------------------|
G------------------------------------------------|
D------------------------------------------------|
A------------------------------------------------|
E------------------------------------------------|

I only tab the tabs, dont ask tempo just listen to the song.

----------------------------------------------------------------------------------------
Chords used
----------------------------------------------------------------------------------------
      Am    Bb    C     D     Dm
E  |-----|--1--|-----|--2--|--1--|
B  |--1--|--3--|--1--|--3--|--3--|
G  |--2--|--3--|-----|--2--|--2--|
D  |--2--|--3--|--2--|-----|-----|
A  |-----|--1--|--3--|-----|-----|
E  |-----|--1--|-----|-----|-----|


----------------------------------------------------------------------------------------
Intro - Guitar 1 Palm Muted - Guitar 2 not playing
----------------------------------------------------------------------------------------

E----------------------------------------------------0-------|
B------------------------------------------------------3-----|
G-----0-----0-------0-----0--------0-----0-------0-------2---|
D---3-----3---3---2-----3--------3-----3---3---2---0---------|
A-1-----3-------0-----1------1-1-----3-------0---------------|
E------------------------------------------------------------|

Play 3 times, at the 2nd the singer sings.
After that play below.. (there is a slight change)

[Guitar 1 and Guitar 2 together]

Guitar 1
E------------------------------------------------|
B------------------------------------------------|
G-----0-----0-------0-------0--------0-----0-----|
D---3-----3---3---2---2---3--------3-----3---3---|
A-1-----3-------0-------1------1-1-----3---------|
E------------------------------------------------|

Guitar 2
E------------------------------------------------|
B------------------------------------------------|
G------------------------------------------------|
D---3-----5-------2-------3--------3-----5-------|
A-1-----3-------0-------1--------1-----3---------|
E------------------------------------------------|

----------------------------------------------------------------------------------------
[AFTER INTRO] play Chord
Guitar 1 < Strum hold > and Guitar 2 < Play each string >
----------------------------------------------------------------------------------------
      D     C    Bb     2x
E  |--2--|-----|--1--|
B  |--3--|--1--|--3--|
G  |--2--|-----|--3--|
D  |-----|--2--|--3--|
A  |-----|--3--|--1--|
E  |-----|-----|--1--|


----------------------------------------------------------------------------------------
At verse 1 Guitar 1 plays this :
----------------------------------------------------------------------------------------

E-------------------|
B-------------------|
G-------7------9-7--|
D-------------------|  Twice  (call this Verse 1A)
A-5-5-5----5-5------|
E-------------------|

E-------------------|
B-------------------|
G-------6------7-6--|
D-------------------|  Twice  (call this Verse 1B)
A-5-5-5----5-5------|
E-------------------|

After that play Verse 1A twice and then :

E--------------------------------------|
B--------------------------------------|
G-------6------7-6--------6----7-6-----|
D----------------------------------7---|
A-5-5-5----5-5------5-5-5--------------|
E--------------------------------------|


Lyrics :
----------------------------------------------------------------------------------------
Intro and Reff
----------------------------------------------------------------------------------------
Bb       C    Am      Bb
Kowareru hodo aishite-mo

Bb       C        Am       Dm
Sanbun no Ichi mo tsutawaranai

Bb       C          Am      Bb
Junjou na Kanjou wa kala-mawari

Bb            C    Am     Dm
[I love you] sae ienai deiru

Bb   C     Am     Bb    Bb     C     D
MY HEART...


----------------------------------------------------------------------------------------
Verse 1
----------------------------------------------------------------------------------------
D                       G
Nagashte-mu renai yoru-ga kowareru aomo-i

D                    G
Sore wa koi nan-deshto sasayaku yo





Comments


Popular Siam Shade tabs & chords
Triptych Bass Tabs
1 3 Junjou Na Kanjou Chords
No Junjou Na Kanjou Chords
Triptych Tabs
1 3 Junjou Na Kanjou Ukulele
No Junjou Na Kanjou Ukulele


Song lyrics



↑ Back to top | Tablatures and chords are parodies/interpretations of the original songs. You may use it for private study, scholarship, research or language learning purposes only
© 2014 AZChords.com Contact us | Privacy policy | DMCA | Add/correct tabs | Request tabs | Top 50 tabs