>
 >
1 3 Junjou Na Kanjou

1 3 Junjou Na Kanjou Chords

Siam Shade - 1 3 Junjou Na Kanjou chords, tabs, tablatures, lyrics

Guitar lessons | Add/correct | Request | Top 50 tabs Artists:  A B C D E F G H I J K L M N O P Q R S T U V W X Y Z 0-9

1 3 Junjou Na Kanjou Chords – Siam Shade

CD, Sheet music, Poster

Do you like 1 3 Junjou Na Kanjou? Share with your friends now
ChordsUkulele
INTRO/CHORUS (repeat 3x intro) (part A)
palm mute---------------------------------------------
(clean)
-------------------------------------------------------------------------------------------|
--------------------------------------------------------------4----------------------------|
----------------------------------------------------------------6--------------------------|
------------------------------------------------------------6-----6------------------------|
----7-9---7-9-7---7-9-7---7-9-7-----7-9-----7-9-7---7-9-7-4--------------------------------|
--5-----7-------4-------5-------5-5-------7-------4----------------------------------------|

                                                   pm------             pm------
                                                 (distorted)
-------------------------------------------------------------------------------------------|
-------------------------------------------------------------------------------------------|
---------------------------------------------------6------------4--4--2--6------------4--4-|
------4-----4-------4-------4---------4-------4----6------------4--4--2--6------------4--4-|
----7-----7---7---7---7---7---7-----7-------7---7--4-4-4-4-4-4--2--2--0--4-4-4-4-4-4--2--2-|
--5-----7-------4-------5-------5-5-------7------------------------------------------------|

-------------------------------------------------------------------------------------------|
-------------------------------------------------------------------------------------------|
--2----------------------------------------------------------------------------------------|
--2----------------------------------------------------------------------------------------|
--0----------------------------------------------------------------------------------------|
-------------------------------------------------------------------------------------------|

VERSE 1


(distorted)
-------------------------------------------------------------------------------------------|
-------------------------------------------------------------------------------------------|
--8-6--8-6--8-6--8-6--6-5--6-5--6-5----666-5-----------------------------------------------|
--6-6--6-6--6-6--6-6--6-6--6-6--6-6----------6---------------------------------------------|  X2
-------------------------------------------------------------------------------------------|
-------------------------------------------------------------------------------------------|

-------------------------------------------------------------------------------------------|
--------------7--6-------------------------------------------------------------------------|
--8-6--8-6--8------6--8-6--8-6--8-6----666-5----8-6--8-6--8------6--8-6--8-6--8-6----------|
--6-6--6-6--6-6--6-6--6-6--6-6--6-6----------6--6-6--6-6--6-6--6-6--6-6--6-6--6-6----------|
-------------------------------------------------------------------------------------------|
-------------------------------------------------------------------------------------------|

                 pm       pm       pm


-------------------------------------------------------------------------------------------|
-------------------------------------------------------------------------------------------|
--6-5-----------------------------------------------------------9--9--8--------------------|
------6--------------7---------4-----------2-----9-----------9-----------------------------|
--------6-4----------7---------4-----------2-----9---9-9-9-9-9--9--9--9--------------------|
------------8-4--5-5-5-----2-2-2-----0-000-0-----7---7-7-7-7-7--7--7--7--------------------|

VERSE 2


(distorted)
--------4----------------------------------------------------------------------------------|
------6---6---7-6--------------------------------------------------------------------------|
--6-5-------6-----6---6-5------------------------------------------------------------------|
--------------------6-----4-3-4-6----------------------------------------------------------|  X3
-------------------------------------------------------------------------------------------|
-------------------------------------------------------------------------------------------|

--<18>-------------------------------------------------------------------------------------|
-------<19>-<19>-<18>-<18>-----------------------------------------------------------------|
---------------------------<18>------------------------------------------------------------|
-------------------------------------------------------------------------------------------|
-------------------------------------------------------------------------------------------|
-------------------------------------------------------------------------------------------|


SOLO
guitar 1 (solo)

    r     r     r     r      b                    b   r p      p   p p   b   r p
-------------------------9-------------------------------------------------------------------|
-(9)^7-(9)^7-(9)^7-(9)^7----7^(9)-7-5-----5--------7^(9)^7^5-5--6^4--------------------------|
--------------------------------------6-----6-4-6-------------------6^4^2-4^(6)^4^2---2------|
------------------------------------------------------------------------------------4---4-2--|
---------------------------------------------------------------------------------------------|
---------------------------------------------------------------------------------------------|
             B                  B          B
---------------------------5-7-------------11^(12)~~~--9---11---12---14----16----19----16--|
----------5-7^(9)------5-7-----7^(9)---------------------9----9----9----14----14----14-----|
------4-6----------4-6-----------------999-------------------------------------------------|
--4-6--------------------------------------------------------------------------------------|
-------------------------------------------------------------------------------------------|
-------------------------------------------------------------------------------------------|
                    s        h  p                  s                s        s        s
----14--------------/21-19-16^19^16----------------------------------------------------------|
-14---------------------------------17-1116-17-19--17/19-17-16-17-19--/21-19-17/19-17-16/17--|
---------------------------------------------------------------------------------------------|
---------------------------------------------------------------------------------------------|
---------------------------------------------------------------------------------------------|
---------------------------------------------------------------------------------------------|
       b                                                   (trem. bar depressed)
---------------------------------------------------------------|
--16-12^(14)~~~--------16-17--9-7---7--------------------------|
-----------------13-16------------9---9---8-6-8-9-8-6----------|
------------------------------------------------------9-7-5-4--|
---------------------------------------------------------------|
---------------------------------------------------------------|

guitar 2 (rhythm)
   rhythm guitar plays intro for first half of solo, then goes to:

-------------------------------------------------------------------------------------------|
-------------------------------------------------------------------------------------------|
-------------------------------------------------------------------------------------------|
-----------------6-4-----9-----------------------------------------------------------------|
----7-6-----9--4-----6-7-------------------------------------------------------------------| X3
--5-----5-7--------------------------------------------------------------------------------|

   and ends with:
                         (trem. bar depressed)
---------------------------|
---------------------------|
---------------------------|
---------------------------|
----7-6---9-7-6------------|
--5-----7-------9-7-5-4-2--|

little thingy before final choruses:
                  B
--7---------7---11^(12)~~~-----------------------------------------------------------------|
--------7-9---7----------------------------------------------------------------------------|
----8-9------------------------------------------------------------------------------------|
-------------------------------------------------------------------------------------------|
-------------------------------------------------------------------------------------------|
-------------------------------------------------------------------------------------------|

final outtro:
                                         s
---------------------------11--11--11--1111-------------------------------------------|
---------------------------12--12--12--1112-------------------------------------------|
--9--9--8--9--11--9--8--9---------------------9--9--8--9--11--9--8--9--9--8-----8-----|
--9--9--9--9--9---9--9--9---------------------9--9--9--9--9---9--9--9--------9-----9--|
--------------------------------------------------------------------------------------|
--------------------------------------------------------------------------------------|
                                         s
---------------------------11--11--11--1111-----------------------------------|
---------------------------12--12--12--1112-----------------------------------|
--9--9--8--9--11--9--8--9---------------------9--9--8--9--11--9--8--9------9--|
--9--9--9--9--9---9--9--9---------------------9--9--9--9--9---9--9--9------9--|
---------------------------------------------------------------------------7--|
------------------------------------------------------------------------------|





Comments


Popular Siam Shade tabs & chords
Triptych Bass Tabs
No Junjou Na Kanjou Chords
Junjou Na Kanjou Tabs
Triptych Tabs
1 3 Junjou Na Kanjou Ukulele
No Junjou Na Kanjou Ukulele


Song lyrics



↑ Back to top | Tablatures and chords are parodies/interpretations of the original songs. You may use it for private study, scholarship, research or language learning purposes only
© 2014 AZChords.com Contact us | Privacy policy | DMCA | Add/correct tabs | Request tabs | Top 50 tabs