» » »

Siakol, Asahan Mo Tabs (ver.1)

Artists:  A B C D E F G H I J K L M N O P Q R S T U V W X Y Z # 

Asahan Mo Tabs (ver.1)

Siakol Tabs
 Rating:
3.7/5 (6 votes)
Asahan Mo lessons Tabs too difficult? Try these video lessons and learn fast
1
                

 Song Title:Asahan Mo


 Tuning:E B G D A E

 Intro:

 e|--15-15----------15-15----------15-15-----------|
 b|--------15-------------15-------------15--------|
 g|-----------12-12----------12-12----------12-12--|
 d|------------------------------------------------|
 a|------------------------------------------------|
 e|------------------------------------------------|

 Adlib:

 e|--------------------------------------------------------------------|
 b|----------12h13-13b-12-13s12----12---------12h13-13b-12-13s12----12-|
 g|--14b-14b--------------------14----14b-14b--------------------14----|
 d|--------------------------------------------------------------------|
 a|--------------------------------------------------------------------|
 e|--------------------------------------------------------------------|

  ---------12-12-12-----------------------------------------|
  -15b-15b----------15-13s12-13-12h13-----------------------|
  ------------------------------------14-114-12s11-12-11h12-|
  ----------------------------------------------------------|
  ----------------------------------------------------------|
  ----------------------------------------------------------|

  ----------------------------------------|
  -------------12h13-15-13-13h15----12h13-|
  ----11-12h14-------------------14-------|
  -14-------------------------------------|
  ----------------------------------------|
  ----------------------------------------|

  --------------------------------------------------------------------|
  ----------12h13-13b-12-13s12----12---------12h13-13b-12-13s12----12-|
  --14b-14b--------------------14----14b-14b--------------------14----|
  --------------------------------------------------------------------|
  --------------------------------------------------------------------|
  --------------------------------------------------------------------|

  ---------12-12-12----------------------------------------------12-|
  -15b-15b----------15-13s12-13-12----12-13-12h13----12-13-15-13----|
  ---------------------------------14-------------14----------------|
  ------------------------------------------------------------------|
  ------------------------------------------------------------------|
  ------------------------------------------------------------------|

  --------------------------------|
  --------------------------------|
  -14-11h12----------11-11h12-12--|
  ----------14-11-12--------------|
  --------------------------------|
  --------------------------------|

 Outro:

 (im not sure about this part)

 e|--------------------------------------------------------------------|
 b|----------12h13-13b-12-13s12----12---------12h13-13b-12-13s12----12-|
 g|--14b-14b--------------------14----14b-14b--------------------14----|
 d|--------------------------------------------------------------------|
 a|--------------------------------------------------------------------|
 e|--------------------------------------------------------------------|

  -------------15-15--------------|
  -15b-15b-15b-------15-13-15-15b-|
  --------------------------------|
  --------------------------------|
  --------------------------------|
  --------------------------------|

  ----------------------------------------------------------|
  -12h13-13-12h13----------------------12-13-15-13-12-------|
  ----------------14-11h12----11-12-14----------------14-12-|
  -------------------------14-------------------------------|
  ----------------------------------------------------------|
  ----------------------------------------------------------|

  -------------------------------------------------------------------|
  ---------12h13-13b-12-13s12----12---------12h13-13b-12-13s12----12-|
  -14b-14b--------------------14----14b-14b--------------------14----|
  -------------------------------------------------------------------|
  -------------------------------------------------------------------|
  -------------------------------------------------------------------|

  -------------15-15--------------|
  -15b-15b-15b-------15-13-15-15b-|
  --------------------------------|
  --------------------------------|
  --------------------------------|
  --------------------------------|

  ----15----------------------------------------------|
  -15----15-15-13-12h13-------------------------------|
  ----------------------14-11h12----------------------|
  -------------------------------14-12-14-------------|
  ----------------------------------------15-14-12-14-|
  ----------------------------------------------------|

  -------------------------------------------------------------------|
  ---------12h13-13b-12-13s12----12---------12h13-13b-12-13s12----12-|
  -14b-14b--------------------14----14b-14b--------------------14----|
  -------------------------------------------------------------------|
  -------------------------------------------------------------------|
  -------------------------------------------------------------------|

  -------------15-15--------------|
  -15b-15b-15b-------15-13-15-15b-|
  --------------------------------|
  --------------------------------|
  --------------------------------|
  --------------------------------|

  ----15----------------------------------------------|
  -15----15-15-13-12h13-------------------------------|
  ----------------------14-11h12----------------------|
  -------------------------------14-12-14-------------|
  ----------------------------------------15-14-12-14-|
  ----------------------------------------------------|

  -------------------------------------------------------------------|
  ---------12h13-13b-12-13s12----12---------12h13-13b-12-13s12----12-|
  -14b-14b--------------------14----14b-14b--------------------14----|
  -------------------------------------------------------------------|
  -------------------------------------------------------------------|
  -------------------------------------------------------------------|

  -------12-12--------------------------|
  -15-15-------15-13s12-13-12-10h12-13--|
  --------------------------------------|
  --------------------------------------|
  --------------------------------------|
  --------------------------------------|

  ***********************The End***********************
            
Submit corrections

comments powered by Disqus
↑ Back to top | Siakol Tabs for Asahan Mo. Lyrics for acoustic guitar and electric guitar. 1 Tablatures and chords are parodies/interpretations of the original songs. You may use it for private study, scholarship, research or language learning purposes only