>
 >
Where We Begin And Where I End

Where We Begin And Where I End Guitar Tabs

Showbread - Where We Begin And Where I End chords, tabs, tablatures, lyrics

Guitar lessons | Add/correct | Request | Top 50 tabs Artists:  A B C D E F G H I J K L M N O P Q R S T U V W X Y Z 0-9

Where We Begin And Where I End Guitar Tabs – Showbread

CD, Sheet music, Poster

Do you like Where We Begin And Where I End? Share with your friends now
Tabs
Showbread
Where We Begin and Where I End

This is my first tab, it's not all correct.  I couldn't figure out some of the 2nd 
parts.  Email me any corrections you figure out.


Intro
e|------------------------------------------------------------------------|
B|------------------------------------------------------------------------|
G|------------------------------------------------------------------------|
D|---2----4----5----4----2----4----3----10 10101010-----------------------|
A|---2----4----5----4----2----4----3----10-10101010-----------------------|
E|---0----2----3----2----0----2----1----8--8-8-8-8------------------------|
                                           P.M....
Verse
     "Is it time that I said some things...."
e|------------------------------------------------------------------------|
B|------------------------------------------------------------------------|
G|---5555--7777--9999--10101010-----5555--7777--9999--10------------------|
D|---5555--7777--9999--10101010-----5555--7777--9999--10------------------|
A|---3333--5555--7777--8-8-8-8------3333--5555--7777--8-------------------|
E|------------------------------------------------------------------------|

Guitar 1
    "It's just that I hoped there..."
e|------------------------------------------------------------------------|
B|------------------------------------------------------------------------|
G|------------------------------------------------------------------------|
D|---10----5----3----7-----1010--55---33---5555---------------------------|
A|---10----5----3----7-----1010--55---33---5555---------------------------|
E|---8-----3----1----5-----8-8---33---11---3333---------------------------|
                           P.M.......................
Guitar 2
e|------------------------------------------------------------------------|
B|------------------------------------------------------------------------|
G|------------------------------------------------------------------------|
D|---10------------5----------3-----------7-------------------------------|
A|---108887775-----58887778---3888777555--7888777555----------------------|
E|---8-------------3-------8--1-----------5-------------------------------|

e|------------------------------------------------------------------------|
B|------------------------------------------------------------------------|
G|------------------------------------------------------------------------|
D|---10------------5----------3-----------7-------------------------------|
A|---108887775-----58887778---3888777555--7888777555----------------------|
E|---8-------------3-------8--1-----------5-------------------------------|


Bridge(both guitars)
       "And times going by so fast now..."
e|------------------------------------------------------------------------|
B|------------------------------------------------------------------------|
G|--------------------5555------------------------------------------------|
D|--------------------5555------------------------------------------------|
A|--3333333333333333--3333------------------------------------------------|
E|------------------------------------------------------------------------|
  P.M...............

Guitar 1
    "'Cause it's just so hard for me..."
e|------------------------------------------------------------------------|
B|------------------------------------------------------------------------|
G|--55555-55555-22222-555555--55555-55555-22222---------------------------|
D|--55555-55555-22222-555555--55555-55555-22222---------------------------|
A|--33333-22222-00000-333333--33333-22222-00000---------------------------|
E|------------------------------------------------------------------------|
    ^clean

Guitar 2
Not sure... =/


Both guitars
    "I guess you'll just throw it away..."
e|------------------------------------------------------------------------|
B|------------------------------------------------------------------------|
G|--555555---4-----------4444--4-----------4444-------------4444----------|
D|--555555---4--5--3-2---4444--4--5--3-2---4444-------------4444----------|
A|--333333---2--5--1-2---2222--2--5--3-2---2222--2----------2222--2-------|
E|--------------3--1-0------------3--1-0-----------3--2-0-----------3--2-0|
                         P.M.              P.M.             P.M.
e|------------------------------------------------------------------------|
B|------------------------------------------------------------------------|
G|--4444---44445--22224--44445--22225--4444---2222---4444---2222----------|
D|--4444---44445--22224--44445--22225--4444---2222---4444---2222----------|
A|--2222------------------------------------------------------------------|
E|------------------------------------------------------------------------|
    P.M.
Riff
    "There is an empty place in my heart...."
e|------------------------------------------------------------------------|
B|------------------------------------------------------------------------|
G|---3-2-3-0-3-2-0-----0-0-0-0---3-2-3-0-3-2-0----0-0-0-------------------|
D|----------------4-2---4-2-4-2-------------4-2----4-2-4-2-1-2~-----------|
A|------------------------------------------------------------------------|
E|------------------------------------------------------------------------|

Intro
e|------------------------------------------------------------------------|
B|------------------------------------------------------------------------|
G|------------------------------------------------------------------------|
D|---2----4----5----4----2----4----3----8---------------------------------|
A|---2----4----5----4----2----4----3----8---------------------------------|
E|---0----2----3----2----0----2----1----6---------------------------------|


Just bass

Guitar 1
e|------------------------------------------------------------------------|
B|------------------------------------------------------------------------|
G|------------------------------------------------------------------------|
D|---2--2--2-3--3--3-5--5--5-3--3--3-2--2--2-3--3--3-5--5--5-3--3--3------|
A|----33-33-3-33-33-3-33-33-3-33-33-3-33-33-3-33-33-3-33-33-3-33-33-3-----|
E|------------------------------------------------------------------------|

e|------------------------------------------------------------------------|
B|------------------------------------------------------------------------|
G|------------------------------------------------------------------------|
D|---2--2--2-3--3--3-5--5--5-3--3--3--------------------------------------|
A|----33-33-3-33-33-3-33-33-3-33-33-3-------------------------------------|
E|------------------------------------------------------------------------|

Guitar 2(after guitar 1 comes in)
e|------------------------------------------------------------------------|
B|------------------------------------------------------------------------|
G|---60-0--0---60-0--0------60-0--0---60-0--0-----------------------------|
D|-----3-23------3-23-3-------3-23------3-23-3----------------------------|
A|--3---------3------------3---------3------------------------------------|
E|------------------------------------------------------------------------|

Both guitars
e|------------------------------------------------------------------------|
B|------------------------------------------------------------------------|
G|------------------------------------------------------------------------|
D|--22222333333555555533333332222222333333335555555533333333--------------|
A|--33333333333333333333333333333333333333333333333333333333--------------|
E|------------------------------------------------------------------------|

    "I guess you will go to college..."
e|------------------------------------------------------------------------|
B|--------6666-6666-6666-6666-6666-----------6-6--------6-6---------------|
G|---6666-6666-6666-6666-6666-6666-x7---6~~--6-6-6~~----6-6-6~~-----------|
D|---6666-3333-2222-0000-3333-2222------6~~--3-2-6~~----3-2-6~~-----------|
A|---3333-------------------------------3~~------3~~--------3~~-----------|
E|------------------------------------------------------------------------|


    "Let's sing together..."
e|------------------------------------------------------------------------|
B|------------------------------------------------------------------------|
G|---2-4-5-5-4-------------4-0----------------------------1---------------|
D|-------------2-4-5-5-4-------4-2---2-1-2-4-5-2--2-1-2-4---2-------------|
A|------------------------------------------------------------------------|
E|------------------------------------------------------------------------|





Comments


Popular Showbread tabs & chords
Until We Meet Again Chords
Hydra Tabs
Missing Wife 1 Tabs
Missing Wife 3 Tabs
Mouth Like A Magazine Tabs
Mouth Like A Magazine 1 Tabs
Myth Of A Christian Nation Intro Tabs
The Prison Comes Undone Tabs
The Vulture Tabs
The Sky Alpha Ukulele


Song lyrics



↑ Back to top | Tablatures and chords are parodies/interpretations of the original songs. You may use it for private study, scholarship, research or language learning purposes only
© 2014 AZChords.com Contact us | Privacy policy | DMCA | Add/correct tabs | Request tabs | Top 50 tabs