» » »

Showbread, The Pig Nervosa Tabs (ver.1)

Artists:  A B C D E F G H I J K L M N O P Q R S T U V W X Y Z # 

The Pig Nervosa Tabs (ver.1)

Showbread Tabs
 Rating:
3.7/5 (6 votes)
The Pig Nervosa lessons Tabs too difficult? Try these video lessons and learn fast
1
                -------------------------------------------------------------------------------
                             The Pig (Nervosa) - Showbread
-------------------------------------------------------------------------------
Tuning: EADGBe



e|---------------------------------------------------------------------------|x2
B|---------------------------------------------------------------------------|
G|--------88888888----------------6666666655555555---------------------------|
D|7777777788888888555555555555555566666666555555552222222222222222-----------|
A|7777777766666666555555555555555544444444333333332222222222222222-----------|
E|55555555--------3333333333333333----------------0000000000000000-----------|

e|---------------------------------------------------------------------------|x2
B|---------------------------------------------------------------------------|
G|---------------------------------------------------------------------------|
D|7-7-7-8-7-5-7-5-5-5-5-6-5-3-5~---------------------------------------------|
A|7-7-7-6-5-3-5-3-5-5-5-4-3-1-3~---------------------------------------------|
E|5-5-5-----------3-3-3------------------------------------------------------|

e|---------------------------------------------------------------------------|
B|---------------------------------------------------------------------------|
G|---------------------------------------------------------------------------|
D|7~-------------------------------------------------------------------------|
A|7~-------------------------------------------------------------------------|
E|5~-------------------------------------------------------------------------|

e|---------------------------------------------------------------------------|x2
B|---------------------------------------------------------------------------|
G|--------8-8-8-8-----------------6-6-6-6-5-5-5-5----------------------------|
D|7-7-7-7-8-8-8-8-5-5-5-5-5-5-5-5-6-6-6-6-5-5-5-5-2-2-2-2-2-2-2-2------------|
A|7-7-7-7-6-6-6-6-5-5-5-5-5-5-5-5-4-4-4-4-3-3-3-3-2-2-2-2-2-2-2-2------------|
E|5-5-5-5---------3-3-3-3-3-3-3-3-----------------0-0-0-0-0-0-0-0------------|

e|---------------------------------------------------------------------------|x2 
B|---------------------------------------------------------------------------|
G|------------------------------------------------9-9b9b9b9b9b9-9------------|
D|------------------------------------------------x-x-x-x-x-x-x-x------------|
A|7-7-7-7-8-8-8-8-9-9-9-10\-3-3-3-3-4-5--2~-------7-7-7-7-7-7-7-7------------|
E|5-5-5-5-6-6-6-6-7-7-7-8\--1-1-1-1-2-3--0~----------------------------------|
PMx x x x x x x x x x x     x x x x x           
(2nd time no palm mute)

e|---------------------------------------------------------------------------|x2
B|---------------------------------------------------------------------------|
G|--------8-8-8-8-----------------6-6-6-6-5-5-5-5----------------------------|
D|7-7-7-7-8-8-8-8-5-5-5-5-5-5-5-5-6-6-6-6-5-5-5-5-2-2-2-2-2-2-2-2------------|
A|7-7-7-7-6-6-6-6-5-5-5-5-5-5-5-5-4-4-4-4-3-3-3-3-2-2-2-2-2-2-2-2------------|
E|5-5-5-5---------3-3-3-3-3-3-3-3-----------------0-0-0-0-0-0-0-0------------|

e|---------------------------------------------------------------------------|x4
B|---------------------------------------------------------------------------|
G|--------8-8-8-8------------------------------------------------------------|
D|7-7-7-7-8-8-8-8------------------------------------------------------------|
A|7-7-7-7-6-6-6-6------------------------------------------------------------|
E|5-5-5-5--------------------------------------------------------------------|

at end
e|------|
B|------|
G|8\----|
D|8\----|
A|6\----|
E|------|




| /  slide up
| \  slide down
| h  hammer-on
| p  pull-off
| ~  hold note
| +  harmonic
| x  Mute note
| b  bend
===============================================================================
            
Submit corrections

comments powered by Disqus
↑ Back to top | Showbread Tabs for The Pig Nervosa. Lyrics for acoustic guitar and electric guitar. 1 Tablatures and chords are parodies/interpretations of the original songs. You may use it for private study, scholarship, research or language learning purposes only