>
 >
The Pig Anorexia 1

The Pig Anorexia 1 Guitar Tabs

Showbread - The Pig Anorexia 1 chords, tabs, tablatures, lyrics

Guitar lessons | Add/correct | Request | Top 50 tabs Artists:  A B C D E F G H I J K L M N O P Q R S T U V W X Y Z 0-9

The Pig Anorexia 1 Guitar Tabs – Showbread

CD, Sheet music, Poster

Do you like The Pig Anorexia 1? Share with your friends now
Bass TabsTabsTabs v2Tabs v3Tabs v4
Intro:
find out strumming pattern. (repeat 2x)
e|------------------------------------------|
B|------------------------------------------|
G|-9--12--11--14---12---11--9---------------|
D|-*---*--*----*----*---*---*---------------|
A|-7--10--9---12---10---9---7---------------|
E|------------------------------------------|

find out strumming pattern.
Whisper...So I...I'm pusing..My will...
e|-0------0--------1---------0------|
B|-0------1--------0---------1------|
G|-0------0--------2---------2------|
D|-2------2--------1---------2------|
A|-2------3--------2---------0------|
E|-0------0--------0---------0------|


You sing..With....Yet I.....No force...
e|-0------0--------1---------0------|
B|-0------1--------0---------1------|
G|-0------0--------2---------2------|   This Part Strum Faster
D|-2------2--------1---------2------|
A|-2------3--------2---------0------|
E|-0------0--------0---------0------|

Why does it seem that all is...
e|---------------------------|
B|---------------------------|
G|-9-9-9----10-10-10---12-12-| play this 3x
D|-*-*-*----*--*--*----*--*--|
A|-7-7-7----9--9--9----10-10-|
E|---------------------------|

 From me
e|------------------------------|
B|------------------------------|
G|-14-14-14----12-12-12---11-11-|
D|-*--*--*-----*--*--*----*--*--|  play this 1 x
A|-12-12-12----10-10-10---9--9--|
E|------------------------------|

I build and build and reaching...
e|---------------------------|
B|---------------------------|
G|-9-9-9----10-10-10---12-12-| play this 4x
D|-*-*-*----*--*--*----*--*--|
A|-7-7-7----9--9--9----10-10-|
E|---------------------------|

Give me something anything why is...
e|------------------------------|
B|------------------------------|
G|-14-14-14----12-12-12---11-11-|
D|-*--*--*-----*--*--*----*--*--|  play this 4 x
A|-12-12-12----10-10-10---9--9--|
E|------------------------------|


Don't I deserve the world after...
e|-----------------------------------------|
B|-----------------------------------------|
G|-14-14-14----12-12-12---11-11-11--9--9--9|
D|-*--*--*-----*--*--*----*--*--*---*--*--*|  play this 1x
A|-12-12-12----10-10-10---9--9--9---7--7--7| Find out strumming
E|-----------------------------------------|

You dangle happiness before me...
e|---------------------------|
B|---------------------------|
G|-9-9-9----10-10-10---12-12-| play this 3x
D|-*-*-*----*--*--*----*--*--|
A|-7-7-7----9--9--9----10-10-|
E|---------------------------|

Of reach...
e|------------------------------|
B|------------------------------|
G|-14-14-14----12-12-12---11-11-|
D|-*--*--*-----*--*--*----*--*--|  play this 1 x
A|-12-12-12----10-10-10---9--9--|
E|------------------------------|

My well is dry and still I try...
e|---------------------------|
B|---------------------------|
G|-9-9-9----10-10-10---12-12-| play this 4x
D|-*-*-*----*--*--*----*--*--|
A|-7-7-7----9--9--9----10-10-|
E|---------------------------|


Nothing lasts except the empty...
e|---------------------------|
B|---------------------------|
G|-9-9-9----10-10-10---12-12-| play this 4x
D|-*-*-*----*--*--*----*--*--|
A|-7-7-7----9--9--9----10-10-|
E|---------------------------|

But I will rise above this world and I will...
e|-----------------------------------------|
B|-----------------------------------------|
G|-14-14-14----12-12-12---11-11-11--9--9--9|
D|-*--*--*-----*--*--*----*--*--*---*--*--*|  play this 1x
A|-12-12-12----10-10-10---9--9--9---7--7--7| Find out strumming
E|-----------------------------------------|

My heart...
e|-------|
B|-------|
G|---0---|x4
D|----2--|
A|--2----|
E|-0-----|

I am my own...
e|---------|
B|---------|
G|-----0---|
D|-------2-|X4
A|---3-----|
E|-0-------|

My heart and...
e|---------|
B|---------|
G|-----3---|
D|-------1-|x4
A|---2-----|
E|-0-------|

I am my own...
e|----------|
B|----------|
G|------1---|
D|--------2-|X4
A|---2------|
E|-0--------|


Piggy squels
e|---|
B|---|
G|---|on the eigth time you bend the strings.
D|-7-|  listen closly to the strumming and amounts you strum.
A|-*-|
E|-5-|                        -----------FIGURE HOW MUCH TIMES YOU STRUM
                              |
                              | 
                             \ /
e|-------X-----------------X|---|
B|-------X-----------------X|---|
G|-------X-5-5-5--4--2-2-2-X|-8-|
D|-2-2-2-X-5-5-5--4--2-2-2-X|-*-|
A|-2-2-2-X-3-3-3--2--0-0-0-X|-6-|
E|-0-0-0-X-----------------X|---|
  I am a fire.............and defecate...

Defecate the......
e|---|
B|---|
G|---|
D|-2-|FIGURE HOW MANY TIMES YOU STRUM
A|-2-|
E|-0-|


e|---|
B|---|
G|---|
D|-8-|FIGURE HOW MANY TIMES YOU STRUM
A|-*-|
E|-6-|





Comments


Popular Showbread tabs & chords
Vehement Bass Tabs
Matthias Replaces Judas Chords
The Fear Of God Chords
Missing Wife 2 Tabs
Nothing Matters Anymore Tabs
The Dissonance Of Discontent Tabs
The Pig Anorexia Tabs
Age Of Reptiles Ukulele
Matthias Replaces Judas Ukulele
Until We Meet Again Ukulele


Song lyrics



↑ Back to top | Tablatures and chords are parodies/interpretations of the original songs. You may use it for private study, scholarship, research or language learning purposes only
© 2014 AZChords.com Contact us | Privacy policy | DMCA | Add/correct tabs | Request tabs | Top 50 tabs